Добавьте AllTabs в закладки Ctrl+D

Say Just Words  аккорды

  Исполнитель: Paradise Lost Прислал:
Say Just Words

Paradise Lost


Tune down to one whole step:

E
B
G
D
A
D

Intro:

Played by piano

Arranged for guitar.

Guitar 1:

|---------------------------------------------------------------------------------------------------
|-----------10------------------------------10------------------------------------------------------
|------7----------7----9----10--------7----------7----9----10---------------------------------------
|----------------------------------------------------------------------8----------------------------
|---------------------------------------------------------------------------------------------------
|---------------------------------------------------------------------------------------------------

Guitar 2:

|-----------------------------------------|
| ----------------------------------------|
|-----------------------------------------|
|--------------------7--------------------|
|--------------------5--------------------|
|-----------------------------------------|

Chorus:

Guitar 1:

|---------------------------------------------------------------------------------------------------
|-----------10------------------------------10------------------------------------------------------
|------7----------7----9----10--------7----------7----9----10---------------------------------------
|----------------------------------------------------------------------8----------------------------
|---------------------------------------------------------------------------------------------------
|---------------------------------------------------------------------------------------------------

Guitar 2:

|---------------------------------------------------------------------------------------------------
|---------------------------------------------------------------------------------------------------
|---------------------------------------------------------------------------------------------------
|------7-7-7-7-7-7-7---10-10-10-10-10-10-10-----5-5-5-5-5-5-5----3-3-3-3-3-3-3----------------------
|------5-5-5-5-5-5-5----8--8---8--8---8--8---8------3-3-3-3-3-3-3----1-1-1-1-1-1-1------------------
|---------------------------------------------------------------------------------------------------

Not sure about the end!

|---------------------------------------------------------------------------------------------------
|---------------------------------------------------------------------------------------------------
|---------------------------------------------------------------------------------------------------
|------7-7-7-7-7-7-7---10-10-10-10-10-10-10----5-5-5-5-5-5-5---2--3--3--3--3------------------------
|------5-5-5-5-5-5-5----8--8---8--8---8--8---8-----3-3-3-3-3-3-3---0--1--1--1--1---5---8------------
|------------------------------------------------------------------------------------------3---6---

Verse:

|-----------------------------------------------------------------------------------------
|-----------------------------------------------------------------------------------------
|-----------------------------------------------------------------------------------------
|-----7-7-7-7-7----7--7----7-7-7-7-7----7--7----7-7-7-7-7-7---7-7-7----10---12----15------
|-----5-5-5-5-5----5--5----5-5-5-5-5----5--5----5-5-5-5-5-5---5-5-5----8----10----13------
|-----------------------------------------------------------------------------------------

End of verse:

|-----------------------------------------------------------------------------------------
|-----------------------------------------------------------------------------------------
|-----------------------------------------------------------------------------------------
|-----2-2-2-2-2----2--2----2-2-2-2-2----2--2----2-2-2-2-2-2---2-2-2-2-2-------------------
|-----0-0-0-0-0----0--0----0-0-0-0-0----0--0----0-0-0-0-0-0---0-0-0-0-0-------------------
|-----------------------------------------------------------------------------------------

Bridge:

|---------------------------------------------------------------------|
|---------------------------------------------------------------------|
|---------------------------------------------------------------------|
|------2-------6-------2-------6--6--6--6--6--6-----------------------|
|------0-------4-------0-------4--4--4--4--4--4-----------------------|
|---------------------------------------------------------------------|

                                  The End
Наздаровье...

Cмотрите также: аккорды к песне The Last Time