Добавьте AllTabs в закладки Ctrl+D

Wrathchild  табулатура

  Исполнитель: Iron Maiden Прислал:
Wrathchild

Iron Maiden


Song: Wrathchild
Album: Killers (1981)
Writers: Steve Harris


E |----------------|----------------|--------------|-----------------|
H |----------------|----------------|--------------|-----------------|
G |----------------|----------------|--------------|-----------------|
D |-7/9-----9--9-9-|-7/9-----9--9-9-|-7/9-----9--9-|-5-5-4-5-7-5-4---|
A |-5/7-----7--7-7-|-5/7-----7--7-7-|-5/7-----7--7-|---------------5-|
E |-----0-0--------|-----0-0--------|-----0-0------|-----------------|

E |----------------|----------------|--------------|-----------------|
H |----------------|----------------|--------------|-----------------|
G |----------------|----------------|--------------|-----------------|
D |-7/9-----9--9-9-|-7/9-----9--9-9-|-7/9-----9--9-|-5-5-4-5-7-5-4---|
A |-5/7-----7--7-7-|-5/7-----7--7-7-|-5/7-----7--7-|---------------5-|
E |-----0-0--------|-----0-0--------|-----0-0------|-----------------|


I was born in to a scene/of angriness and greed/of dominance and persecution
E |----------------|----------------|--------------|-----------------|
H |----------------|----------------|--------------|-----------------|
G |----------------|----------------|--------------|-----------------|
D |-7/9-----9--9-9-|-7/9-----9--9-9-|-7/9-----9--9-|-5-5-4-5-7-5-4---|
A |-5/7-----7--7-7-|-5/7-----7--7-7-|-5/7-----7--7-|---------------5-|
E |-----0-0--------|-----0-0--------|-----0-0------|-----------------|


My mother was a queen/my dad I've never seen/I were never meant to be
E |----------------|----------------|--------------|-----------------|
H |----------------|----------------|--------------|-----------------|
G |----------------|----------------|--------------|-----------------|
D |-7/9-----9--9-9-|-7/9-----9--9-9-|-7/9-----9--9-|-5-5-4-5-7-5-4---|
A |-5/7-----7--7-7-|-5/7-----7--7-7-|-5/7-----7--7-|---------------5-|
E |-----0-0--------|-----0-0--------|-----0-0------|-----------------|


Now I spend my time looking all around
E |------|----------------|-------------|
H |------|----------------|-------------|
G |------|----------------|-------------|
D |-5--4-|-7/9-----9--9-9-|-7/9-----9-7-|
A |-3--2-|-5/7-----7--7-7-|-5/7-----7-5-|
E |------|-----0-0--------|-----0-0-----|


For a man that's nowhere to be found
E |------|----------------|-------------|
H |------|----------------|-------------|
G |------|----------------|-------------|
D |-5--4-|-7/9-----9--9-9-|-7/9-----9-7-|
A |-3--2-|-5/7-----7--7-7-|-5/7-----7-5-|
E |------|-----0-0--------|-----0-0-----|


'Til I find him...
E |------------------|
H |------------------|
G |------------------|
D |-5--4--------5--4-|
A |-3--2--5--4--3--2-|
E |-------3--2-------|


....rouuuuuuuuuuuuuuuuuuuuuuuuuuund
E |----------------|----------------|--------------|-----------------|
H |----------------|----------------|--------------|-----------------|
G |----------------|----------------|--------------|-----------------|
D |-7/9-----9--9-9-|-7/9-----9--9-9-|-7/9-----9--9-|-5-5-4-5-7-5-4---|
A |-5/7-----7--7-7-|-5/7-----7--7-7-|-5/7-----7--7-|---------------5-|
E |-----0-0--------|-----0-0--------|-----0-0------|-----------------|

E |----------------|----------------|--------------|-----------------|
H |----------------|----------------|--------------|-----------------|
G |----------------|----------------|--------------|-----------------|
D |-7/9-----9--9-9-|-7/9-----9--9-9-|-7/9-----9--9-|-5-5-4-5-7-5-4---|
A |-5/7-----7--7-7-|-5/7-----7--7-7-|-5/7-----7--7-|---------------5-|
E |-----0-0--------|-----0-0--------|-----0-0------|-----------------|


I'm a wrathchild
E |-----------|-------------|
H |-----------|-------------|
G |-----------|-------------|
D |-7/9-----9-|-------------|
A |-5/7-----7-|-7-5---5---5-|
E |-----0-0---|-----7---7---|


I'm a wrathchild
E |-----------|-------------|
H |-----------|-------------|
G |-----------|-------------|
D |-7/9-----9-|-5-6-7-------|
A |-5/7-----7-|-------5---5-|
E |-----0-0---|---------7---|


I'm a wrathchild
E |-----------|-------------|
H |-----------|-------------|
G |-----------|-------------|
D |-7/9-----9-|-------------|
A |-5/7-----7-|-7-5---5---5-|
E |-----0-0---|-----7---7---|


I'm coming to get you      Ooh yeah yeah
E |-----------------------|-----------------------|---------------------|
H |-----------------------|-----------------------|---------------------|
G |-----------------------|-----------------------|---------------------|
D |-5-5-5-5-5---5-5---5-5-|-7-7-7-7-7---7-7---7-7-|---------------------|
A |-3-3-3-3-3---3-3---3-3-|-5-5-5-5-5---5-5---5-5-|-7-5---5---5---------|
E |-----------3-----3-----|-----------5-----5-----|-----7---7---7-6-5-3-|


(Solo)
E |----------------|----------------|--------------|-----------------|
H |----------------|----------------|--------------|-----------------|
G |----------------|----------------|--------------|-----------------|
D |-7/9-----9--9-9-|-7/9-----9--9-9-|-7/9-----9--9-|-5-5-4-5-7-5-4---|
A |-5/7-----7--7-7-|-5/7-----7--7-7-|-5/7-----7--7-|---------------5-|
E |-----0-0--------|-----0-0--------|-----0-0------|-----------------|

E |----------------|----------------|--------------|-----------------|
H |----------------|----------------|--------------|-----------------|
G |----------------|----------------|--------------|-----------------|
D |-7/9-----9--9-9-|-7/9-----9--9-9-|-7/9-----9--9-|-5-5-4-5-7-5-4---|
A |-5/7-----7--7-7-|-5/7-----7--7-7-|-5/7-----7--7-|---------------5-|
E |-----0-0--------|-----0-0--------|-----0-0------|-----------------|

E |----------------|----------------|--------------|-----------------|
H |----------------|----------------|--------------|-----------------|
G |----------------|----------------|--------------|-----------------|
D |-7/9-----9--9-9-|-7/9-----9--9-9-|-7/9-----9--9-|-5-5-4-5-7-5-4---|
A |-5/7-----7--7-7-|-5/7-----7--7-7-|-5/7-----7--7-|---------------5-|
E |-----0-0--------|-----0-0--------|-----0-0------|-----------------|

E |----------------|----------------|--------------|-----------------|
H |----------------|----------------|--------------|-----------------|
G |----------------|----------------|--------------|-----------------|
D |-7/9-----9--9-9-|-7/9-----9--9-9-|-7/9-----9--9-|-5-5-4-5-7-5-4---|
A |-5/7-----7--7-7-|-5/7-----7--7-7-|-5/7-----7--7-|---------------5-|
E |-----0-0--------|-----0-0--------|-----0-0------|-----------------|

E |-----------------------|-----------------------|---------------------|
H |-----------------------|-----------------------|---------------------|
G |-----------------------|-----------------------|---------------------|
D |-5-5-5-5-5---5-5---5-5-|-7-7-7-7-7---7-7---7-7-|---------------------|
A |-3-3-3-3-3---3-3---3-3-|-5-5-5-5-5---5-5---5-5-|-7-5---5---5---------|
E |-----------3-----3-----|-----------5-----5-----|-----7---7---7-6-5-3-|


E |-------------------------|-------------------------|
H |-------------------------|-------------------------|
G |-------------------------|-------------------------|
D |-------0-----0-----------|-------0-----0-----------|
A |-2-2-2---2-2---2-1-0-----|-2-2-2---2-2---2-1-0-----|
E |---------------------3-0-|---------------------3-0-|

E |-------------------------|-------------------------|
H |-------------------------|-------------------------|
G |-------------------------|-------------------------|
D |-------0-----0-----------|-------0-----0-----------|
A |-2-2-2---2-2---2-1-0-----|-2-2-2---2-2---2-1-0-----|
E |---------------------3-0-|---------------------3-0-|


Oooooooooooooooooooooooooooooooooooooo...
E |-------------------------|-------------------------|
H |-------------------------|-------------------------|
G |-------------------------|-------------------------|
D |-------2-----2-----------|-------2-----2-----------|
A |-4-4-4---4-4---4-3-2-----|-4-4-4---4-4---4-3-2-----|
E |---------------------5-2-|---------------------5-2-|

E |-------------------------|-------------------------|--------------------|
H |-------------------------|-------------------------|--------------------|
G |-------------------------|-------------------------|--------------------|
D |-------3-----3-----------|-------3-----3-----------|--------------------|
A |-5-5-5---5-5---5-4-3-----|-5-5-5---5-5---5-4-3-----|-7-5---5---5--------|
E |---------------------6-3-|---------------------6-3-|-----7---7---7-6-5-3|


E |----------------|----------------|--------------|-----------------|
H |----------------|----------------|--------------|-----------------|
G |----------------|----------------|--------------|-----------------|
D |-7/9-----9--9-9-|-7/9-----9--9-9-|-7/9-----9--9-|-5-5-4-5-7-5-4---|
A |-5/7-----7--7-7-|-5/7-----7--7-7-|-5/7-----7--7-|---------------5-|
E |-----0-0--------|-----0-0--------|-----0-0------|-----------------|

E |----------------|----------------|--------------|-----------------|
H |----------------|----------------|--------------|-----------------|
G |----------------|----------------|--------------|-----------------|
D |-7/9-----9--9-9-|-7/9-----9--9-9-|-7/9-----9--9-|-5-5-4-5-7-5-4---|
A |-5/7-----7--7-7-|-5/7-----7--7-7-|-5/7-----7--7-|---------------5-|
E |-----0-0--------|-----0-0--------|-----0-0------|-----------------|


Some say it shouldn't matter/ain't nothing gonna alter/cos of my destination
E |----------------|----------------|--------------|-----------------|
H |----------------|----------------|--------------|-----------------|
G |----------------|----------------|--------------|-----------------|
D |-7/9-----9--9-9-|-7/9-----9--9-9-|-7/9-----9--9-|-5-5-4-5-7-5-4---|
A |-5/7-----7--7-7-|-5/7-----7--7-7-|-5/7-----7--7-|---------------5-|
E |-----0-0--------|-----0-0--------|-----0-0------|-----------------|


But I know I gotta find/some serious peace of mind/os I know I just go crazy
E |----------------|----------------|--------------|-----------------|
H |----------------|----------------|--------------|-----------------|
G |----------------|----------------|--------------|-----------------|
D |-7/9-----9--9-9-|-7/9-----9--9-9-|-7/9-----9--9-|-5-5-4-5-7-5-4---|
A |-5/7-----7--7-7-|-5/7-----7--7-7-|-5/7-----7--7-|---------------5-|
E |-----0-0--------|-----0-0--------|-----0-0------|-----------------|


Now I spend my time looking all around
E |------|----------------|-------------|
H |------|----------------|-------------|
G |------|----------------|-------------|
D |-5--4-|-7/9-----9--9-9-|-7/9-----9-7-|
A |-3--2-|-5/7-----7--7-7-|-5/7-----7-5-|
E |------|-----0-0--------|-----0-0-----|


For a man that's nowhere to be found
E |------|----------------|-------------|
H |------|----------------|-------------|
G |------|----------------|-------------|
D |-5--4-|-7/9-----9--9-9-|-7/9-----9-7-|
A |-3--2-|-5/7-----7--7-7-|-5/7-----7-5-|
E |------|-----0-0--------|-----0-0-----|


'Til I find him...
E |------------------|
H |------------------|
G |------------------|
D |-5--4--------5--4-|
A |-3--2--5--4--3--2-|
E |-------3--2-------|

....rouuuuuuuuuuuuuuuuuuuuuuuuuund
E |----------------|----------------|--------------|-----------------|
H |----------------|----------------|--------------|-----------------|
G |----------------|----------------|--------------|-----------------|
D |-7/9-----9--9-9-|-7/9-----9--9-9-|-7/9-----9--9-|-5-5-4-5-7-5-4---|
A |-5/7-----7--7-7-|-5/7-----7--7-7-|-5/7-----7--7-|---------------5-|
E |-----0-0--------|-----0-0--------|-----0-0------|-----------------|

E |----------------|----------------|--------------|-----------------|
H |----------------|----------------|--------------|-----------------|
G |----------------|----------------|--------------|-----------------|
D |-7/9-----9--9-9-|-7/9-----9--9-9-|-7/9-----9--9-|-5-5-4-5-7-5-4---|
A |-5/7-----7--7-7-|-5/7-----7--7-7-|-5/7-----7--7-|---------------5-|
E |-----0-0--------|-----0-0--------|-----0-0------|-----------------|


I'm a wrathchild
E |-----------|-------------|
H |-----------|-------------|
G |-----------|-------------|
D |-7/9-----9-|-------------|
A |-5/7-----7-|-7-5---5---5-|
E |-----0-0---|-----7---7---|


I'm a wrathchild
E |-----------|-------------|
H |-----------|-------------|
G |-----------|-------------|
D |-7/9-----9-|-5-6-7-------|
A |-5/7-----7-|-------5---5-|
E |-----0-0---|---------7---|


I'm a wrathchild
E |-----------|-------------|
H |-----------|-------------|
G |-----------|-------------|
D |-7/9-----9-|-------------|
A |-5/7-----7-|-7-5---5---5-|
E |-----0-0---|-----7---7---|


I'm coming to get you      Ooh yeah yeah
E |-----------------------|-----------------------|
H |-----------------------|-----------------------|
G |-----------------------|-----------------------|
D |-5-5-5-5-5---5-5---5-5-|-7-7-7-7-7---7-7---7-7-|
A |-3-3-3-3-3---3-3---3-3-|-5-5-5-5-5---5-5---5-5-|
E |-----------3-----3-----|-----------5-----5-----|

E |---------------------|---------------------|---------------------|---|
H |---------------------|---------------------|---------------------|---|
G |---------------------|---------------------|-9-7---7---7---------|---|
D |---------------------|---------------------|-----9---9---9-8-7-5-|-9-|
A |-7-5---5---5---------|-7-5---5---5---------|---------------------|-7-|
E |-----7---7---7-6-5-3-|-----7---7---7-6-5-3-|---------------------|-0-|

Cмотрите также: басс табулатура к песне Wrathchild