Добавьте AllTabs в закладки Ctrl+D

Transylvania  бассовая партия

  Исполнитель: Iron Maiden Прислал:
Transylvania

Iron Maiden


-------------------------------------------------------------------------------
			TRANSYLVANIA - Iron Maiden
-------------------------------------------------------------------------------

Tabbed By :	Otto van Zanten
e-mail:		tabs@zortnarf.cjb.net (anti spam, will be redirected)

This is the bassline that you can hear during the guitar solo's and at the end.
I havn't found the tabs anywhere yet (previous bass tab helped me a little tho)
so I had to tab it out myself. You can find the beginning of the song somewhere
else or you can find out for yourself, not that hard.

For the timing listen to the CD.

Let me know what you think about it. If you find mistakes / flaws, let me know
It sounds pretty darn accurate to me, haha.
(I tabbed this from the album version Iron Maiden - Iron Maiden)

Tuning: Standard tuning

Riff 1, 1:46
G|---------------------------------------------------------------------|
D|-------------------------5-7-9-------------------------4-5-7---------|
A|-7-7-7-7-7-7-7-7-7-7-7-7-------5-5-5-5-5-5-5-5-5-5-5-5-------3-3-3-3-|
E|---------------------------------------------------------------------|

G|---------------------------------7-9-9-9-9-9-9-9-|
D|-2-3-5---------4-5-7---------7-9-----------------|
A|-------5-5-5-5-------7-7-7-7---------------------|
E|-------------------------------------------------|

Riff 2, 1:55 (First guitarsolo starts)
G|-------------------------------------------------7-----------------|
D|-------------------------5-7-9-------------4-5-7---5p4-------------|
A|-7-7-7-7-7-7-7-7-7-7-7-7-------5-5-5-5-5-5-------------5-2-3-3-3-3-|
E|-------------------------------------------------------------------|

G|---------------------------------7-9-7------------|
D|-2-3-5---------4-5-7---------7-9-------9-7--------|
A|-------5-5-5-5-------7-7-7-7---------------10-7-5-|
E|--------------------------------------------------|

Riff 3, 2:04 (Second part of first guitarsolo)
G|-----------------------------------------7-5-----------------------|
D|-------------------------5-7-9-----4-5-7-----7-5-4-5p4-------------|
A|-7-7-7-7-7-7-7-7-7-7-7-7-------5-5---------------------5-2-3-3-3-3-|
E|-------------------------------------------------------------------|


G|-----------------------------------------------------|
D|-2-3-5---------4-5-7---------------------------------|
A|-------5-5-5-5-------7-7-7-7-7-7-7-7-7-7-7-7-7-7-7-7-|
E|-----------------------------------------------------|

Riff 4, 2:12 (Third part of first guitarsolo)
G|---------------------------------------------------------------------|
D|-------------------------5-7-9-------------------------4-5-7---------|
A|-7-7-7-7-7-7-7-7-7-7-7-7-------5-5-5-5-5-5-5-5-5-5-5-5-------3-3-3-3-|
E|---------------------------------------------------------------------|

G|-----------------------------------------------------|
D|-2-3-5---------4-5-7---------------------------------|
A|-------5-5-5-5-------7-7-7-7-7-7-7-7-7-7-7-7-7-7-7-7-|
E|-----------------------------------------------------|

Riff 5, 2:22 (Guitar solo stops)
G|-------------------------------------------------7-----------------|
D|-------------------------5-7-9-------------4-5-7---5p4-------------|
A|-7-7-7-7-7-7-7-7-7-7-7-7-------5-5-5-5-5-5-------------5-2-3-3-3-3-|
E|-------------------------------------------------------------------|

G|-----------------------------------------------------|
D|-2-3-5---------4-5-7---------------------------------|
A|-------5-5-5-5-------7-7-7-7-7-7-7-7-7-7-7-7-7-7-7-7-|
E|-----------------------------------------------------|

Riff 6, 2:30 
G|---------------------------------------------------------------------|
D|---------------------------------------------------------------------|
A|-7-----------------------------5------------------------------3------|
E|---------------------------------------------------------------------|

G|-----------------------------------------------------|
D|-----------------------------------------------------|
A|-------5-------------7-------------------------------|
E|-----------------------------------------------------|

Riff 7, 2:39
G|-------------------------------------------------7-----------------|
D|-------------------------5-7-9-------------4-5-7---5p4-------------|
A|-7-7-7-7-7-7-7-7-7-7-7-7-------5-5-5-5-5-5-------------5-5-3-3-3-3-|
E|-------------------------------------------------------------------|

G|---------------------------------7-9-9-9-9-9-9-9-|
D|-2-3-5---------4-5-7---------7-9-----------------|
A|-------5-5-5-5-------7-7-7-7---------------------|
E|-------------------------------------------------|

Riff 8, 2:48 (Second guitarsolo starts)
G|---------------------------------------------------------------------|
D|-------------------------5-7-9-------------------------4-5-7---------|
A|-7-7-7-7-7-7-7-7-7-7-7-7-------5-5-5-5-5-5-5-5-5-5-5-5-------3-3-3-3-|
E|---------------------------------------------------------------------|

G|-----------------------------------------------------|
D|-2-3-5---------4-5-7---------------------------------|
A|-------5-5-5-5-------7-7-7-7-7-7-7-7-7-7-7-7-7-7-7-7-|
E|-----------------------------------------------------|

Riff 9, 2:57
G|-----------------------------------------7-5-----------------------|
D|-------------------------5-7-9-----4-5-7-----7-5-4-5p4-------------|
A|-7-7-7-7-7-7-7-7-7-7-7-7-------5-5---------------------5-2-3-3-3-3-|
E|-------------------------------------------------------------------|

G|-----------------------------------------------------|
D|-2-3-5---------4-5-7---------------------------------|
A|-------5-5-5-5-------7-7-7-7-7-7-7-7-7-7-7-7-7-7-7-7-|
E|-----------------------------------------------------|

Riff 10, 3:06 (Second part of second guitarsolo)
G|---9-9-9-9-9-9-9-9-9-9-9-9-7-----7-7-7-7-7-7-7-7-7-7-7-7-5-----|
D|-----------------------------9-----------------------------7---|
A|-7-----------------------------5-----------------------------3-|
E|---------------------------------------------------------------|

G|-5-5-5-5-3-----7-7-7-7-5-----9-9-9-9-9-9-9-9-9-9-9-9-7-----|
D|-----------5-------------7-----------------------------9---|
A|-------------5-------------7-----------------------------7-|
E|-----------------------------------------------------------|

Riff 11, 3:15
G|---9-9-9-9-9-9-9-9-9-9-9-9-7-----7-7-7-7-7-7-7-7-5-------------|
D|-----------------------------9---------------------7-5---------|
A|-7-----------------------------5-----------------------7-5-2-3-|
E|---------------------------------------------------------------|

G|-5-5-5-5-3-----7-7-7-7-5-----9-9-9-9-9-9-9-9-9-9-9-9-7-----|
D|-----------5-------------7-----------------------------9---|
A|-------------5-------------7-----------------------------7-|
E|-----------------------------------------------------------|

Riff 12, 3:23 (Second guitarsolo stops)
G|-------------------------------------------------7-----------------|
D|-------------------------5-7-9-------------4-5-7---5p4-------------|
A|-7-7-7-7-7-7-7-7-7-7-7-7-------5-5-5-5-5-5-------------5-2-3-3-3-3-|
E|-------------------------------------------------------------------|

G|-----------------------------9-9-9-9-9-9-9-9-9-9-9-9-9-9-9-9-|
D|-2-3-5---------4-5-7-----------------------------------------|
A|-------5-5-5-5-------7-7-7-7---------------------------------|
E|-------------------------------------------------------------|

Riff 13, 3:32

G|-------------------------------------------------7-----------------|
D|-------------------------5-7-9-------------4-5-7---5p4-------------|
A|-7-7-7-7-7-7-7-7-7-7-7-7-------5-5-5-5-5-5-------------5-2-3-3-3-3-|
E|-------------------------------------------------------------------|

G|------------------------------|
D|-2-3-5---------4-5-7-----------------------------------------|
A|-------5-5-5-5-------7-(Let Ring)-|
E|-------------------------------------------------------------|

Riff 14, 3:45
G|-------------------------------|
D|-5-4-2-------5-(Let ring)------|
A|-------5-3-2-------------------|
E|------------------0 (Let Ring)-|

| /  slide up
|   slide down
| h  hammer-on
| p  pull-off
| ~  vibrato
| +  harmonic
| x  Mute note
===============================================================================

Cмотрите также: табулатура к песне Twilight Zone