Добавьте AllTabs в закладки Ctrl+D

These Colours Dont Run Intro  табулатура

  Исполнитель: Iron Maiden Прислал:
These Colours Dont Run Intro

Iron Maiden


I think this is the First Tab of this Song , enjoy it!


Guitar #1  , Intro and Verse
e----------------------------------------------------------------------------|
b----------------------------------------------------------------------------|
g----------4---------------5/7-5-4------------4-------------5/7-------7/9----|
d-----4--------4-2-----5------------5-----4-------4-2-----5---------7--------|
a---2---2----2-------3---3--------------2---2---2-------3---------5----------|
e-0----------------0------------------0---------------0---------0------------|

Guitar #2 , Leadguitarintro
e-----------------------------------------------------------------------------|
b-----------------------------------------------------------------------------|
g-4-4-4-2---5/7-5-4-2-4------------------4-4-4-2---5/7-5-4-2-4----------------|
d---------5-------------5---5-5-4-5-7-----------5-------------5---5-5-4-5-4-2-|
a-----------------------------------------------------------------------------|
e-----------------------------------------------------------------------------|

Prechorus and Chorus:
e---------------------|
b---------------------|
g------5-------7------|
d--2---5---5---7------|
a--2---3---5---5------|
e--0-------3----------|

OoOoO Part:
e-----------------------------------------------------------------------------|
b-----------------------------------------------------------------------------|
g-----------------------------------------------------------------------------|
d--9--9-10-12-10-9--9-10-9------------------9--9-10-12-10-9--9-10-9-----------|
a---------------------------12-10-12--10-12--------------------------12-10-12-|
e-----------------------------------------------------------------------------|


Thats all i?ve got so far, I hope it?s right.
Thanks Iron Maiden for making such an awesome new Album.

Please rate this Tab   @ Manuel Herbert, 9.2.2006. Oberelsbach, Germany

Cмотрите также: басс табулатура к песне Total Eclipse