Добавьте AllTabs в закладки Ctrl+D

Run To The Hills Solo  табулатура

  Исполнитель: Iron Maiden Прислал:
Run To The Hills Solo

Iron Maiden


this is a tab of dave murray's solo to iron maidens run to the hills.
it took me a week to tab so ENJOY IT or else!!!!!!!!!!!!!!!!!!!!!!!!!

b bend
h hammeron/pull off
* tremolo
                                                                       
E||----------------------------|--12h15h12----12-------12----------------------|
B||--12--15b-------15-15-15b---|-----------15----15b------15h12h15h12-12-------|
G||----------------------------|-----------------------------------------14b---|
D||----------------------------|-----------------------------------------------|
A||----------------------------|-----------------------------------------------|
E||----------------------------|-----------------------------------------------|


                                           
------------------------------------------|
------------------------------------------|
--14h12h14h12-12--------------------------|                    
-----------------14--14~---------12h14h12-|
---------------------------12-14----------|
------------------------------------------|


                                                   
--------------------------------------------------|
--------------------------12-12h14h12-12h15h12-15h|
-----------12h14h12-12h14-------------------------|
-----12h14----------------------------------------|
--14----------------------------------------------|
--------------------------------------------------|


                                               
----------------------------------------------|
--12-12-12h15~-15h17h15----15h17h15h17-----17-|
------------------------16-------------16~----|
----------------------------------------------|
----------------------------------------------|
----------------------------------------------|


                                             
--------------------------------------------|
--15h17h15-15h17h15----15-18b---------------|
--------------------16----------------------|
--------------------------------------------|
--------------------------------------------|
--------------------------------------------|


                                                                      
--12h15h12h15-----------------------------------|--------------------|
--------------12h15h12h15-----------------------|--------------------|
--------------------------14h12h14----------12--|--14b---------------|
-----------------------------------14h12h14-----|--------------------|
------------------------------------------------|--------------------|
------------------------------------------------|--------------------|


                                                               
-----------17*---------------|-----------------0--|----------------||
-----------------15*----17*--|--------------0-----|--17--20b-------||
--15-------------------------|--14*---16*---------|----------------||
-----12~---------------------|--------------------|----------------||
-----------------------------|--------------------|----------------||
-----------------------------|--------------------|----------------||

if you have any good iron maiden tabs you could send them to me at ironMAIDEN_56@hotmail.com.
hope you enjoyed my tab ;)
by the way my name is james hemmings !!!!!!!!!!!!!!!!!!!!!!!!!!1

Cмотрите также: табулатура к песне Sanctuary