Добавьте AllTabs в закладки Ctrl+D

Reincarnation Of Benjamin Breeg  бассовая партия

  Исполнитель: Iron Maiden Прислал:
Reincarnation Of Benjamin Breeg

Iron Maiden


IRON MAIDEN
The Reincarnation of Benjamin Breeg
(Murray/Harris)
bass tab
tabbed by : endemicbass666


INTRO (x2)

|-9-----------|-5-------------|-9-------------|-7--------------|
|-9-----------|-5-------------|-9-------------|-7--------------|
|-7-----------|-3-------------|-7-------------|-5--------------|
|-------------|---------------|---------------|----------------|
                                               

|-9-----------|-5-------------|-9-------------|----------------|
|-9-----------|-5-------------|-9-------------|----------------|
|-7-----------|-3-------------|-7-------------|----------------|
|-------------|---------------|---------------|----------------|   


                                      
							x 6
|---------9---|---------9---|---------9---||------------------|
|-----9-----9-|-----9-----9-|-----9-----9-||-----9---10---7---|
|---7---7-----|---7---7-----|---7---7-----||---7---7----7---7-|
|-0-----------|-0-----------|-0-----------||-0----------------|


 

|---6-6---6-6-6---|---7-7---7-7-7---|---5-5---5-5-5---|
|-4-----4-------4-|-5-----5-------5-|-3-----3-------3-|
|-----------------|-----------------|-----------------|
|-----------------|-----------------|-----------------|

		x 4
|------------------|
|-----9---10---7---|
|---7---7----7---7-|
|-0----------------|


|---6-6---6-6-6---|---7-7---7-7-7---|---5-5---5-5-5---|
|-4-----4-------4-|-5-----5-------5-|-3-----3-------3-|
|-----------------|-----------------|-----------------|
|-----------------|-----------------|-----------------|



 (x 10)

|------------------|
|-----9---10---7---|
|---7---7----7---7-|
|-0----------------|



Main riff (x4)

|------------------------|
|------------------------|
|-11/------2-3----------|
|-------0-0------2/32-0-|


Verse x 2
											x 2
|-----------------|-----------------|-----------------|-2---------------|-------------------|
|-2---------------|-4---------------|-5---------------|-2---------------|-------------------|
|-2---------------|-4---------------|-5---------------|-0-0-0-0-0-0-0-0-|------2-3----------|
|-0-0-0-0-0-0-0-0-|-2-2-2-2-2-2-2-2-|-3-3-3-3-3-3-3-3-|-----------------|-0-0-------2/3/2-0-|


											x 2
|-----------------|-----------------|-----------------|-2---------------|-------------------|
|-2---------------|-4---------------|-5---------------|-2---------------|-------------------|
|-2---------------|-4---------------|-5---------------|-0-0-0-0-0-0-0-0-|------2-3----------|
|-0-0-0-0-0-0-0-0-|-2-2-2-2-2-2-2-2-|-3-3-3-3-3-3-3-3-|-----------------|-0-0-------2/3/2-0-|



Chorus (x 2)

|------------------|---------------------|
|-2----------------|-2-------------------|
|-2-----------3----|-2----2-0-2--3-------|
|-0----0-2-3-----2-|-0---------------2---|

|------------------|--------------------|
|-2----------------|-2------------------|
|-2-----------3----|-2---2-0-2--3---5---|
|-0----0-2-3-----2-|-0------------------|




Main riff (x4)


|--------------------|
|--------------------|
|-------2-3----------|
|---0-0------2/32-0-|



Verse


|-----------------|-----------------|-----------------|-2---------------|-------------------|
|-2---------------|-4---------------|-5---------------|-2---------------|-------------------|
|-2---------------|-4---------------|-5---------------|-0-0-0-0-0-0-0-0-|------2-3----------|
|-0-0-0-0-0-0-0-0-|-2-2-2-2-2-2-2-2-|-3-3-3-3-3-3-3-3-|-----------------|-0-0-------2/3/2-0-|




Chorus (x 2)

|------------------|---------------------|
|-2----------------|-2-------------------|
|-2-----------3----|-2----2-0-2--3-------|
|-0----0-2-3-----2-|-0---------------2---|

|------------------|--------------------|
|-2----------------|-2------------------|
|-2-----------3----|-2---2-0-2--3---5---|
|-0----0-2-3-----2-|-0------------------|


Bridge (x 4)

|--------------------------|---------------------------------|
|--------------------------|---------------------------------|
|--------------------------|-3/2---3-5---3/2-------------3/2-|
|-0--0-0-0-0-0-0-0-0-0-0-0-|-----0-----------0-0-3/2-0-0-----|


|--------------------------|
|--------------------------|
|--------------------------|
|-0--0-0-0-0-0-0-0-0-0-0-0-|


Riff under duet
                                         (x 8)
|----------------------|----------------------|
|----------------------|----------------------|
|------------3-3-3-3-3-|-0-0-0-0-0------------|
|-0-0-0-0-0------------|------------1-1-1-1-1-|



Riff 1 : (x2)

|--------------------------|---------------------------|
|----------3-2---------7-6-|---------10--9---------7-6-|
|--------------------------|---------------------------|
|-0-0-0-0------0-0-0-0-----|-0-0-0-0-------0-0-0-0-----|



Riff under solo:


|---------------------------------|------------------------|
|---------------------------------|------------------------|
|-----------------------------2-3-|-3-3-3-3-3-3-3-3--------|
|-0-0-0-0-0-0-0-0-0-0-0-0-0-0-----|------------------2--3--|


|---------------------------------|--------------------------|
|---------------------------------|--------------------------|
|-----------------------------2-3-|-3-3-3-3-3-3-3-3-3-----5--|
|-0-0-0-0-0-0-0-0-0-0-0-0-0-0-----|--------------------2-----|


Main riff (x4)


|--------------------|
|--------------------|
|-------2-3----------|
|---0-0------2/32-0-|




Chorus (x 2)

|------------------|---------------------|
|-2----------------|-2-------------------|
|-2-----------3----|-2----2-0-2--3-------|
|-0----0-2-3-----2-|-0---------------2---|

|------------------|--------------------|
|-2----------------|-2------------------|
|-2-----------3----|-2---2-0-2--3---5---|
|-0----0-2-3-----2-|-0------------------|



Main riff (x4)



|--------------------|
|--------------------|
|-------2-3----------|
|---0-0------2/32-0-|




Riff 1 : (x2)

|--------------------------|---------------------------|
|----------3-2---------7-6-|---------10--9---------7-6-|
|--------------------------|---------------------------|
|-0-0-0-0------0-0-0-0-----|-0-0-0-0-------0-0-0-0-----|


Outro x 4


|------------------|
|-----9---10---7---|
|---7---7----7---7-|
|-0----------------|

end.


visit my website :

www.blackembrace.tk



 

Cмотрите также: табулатура к песне Remember Tomorrow