Добавьте AllTabs в закладки Ctrl+D

Rainmaker  бассовая партия

  Исполнитель: Iron Maiden Прислал:
Rainmaker

Iron Maiden


-----------------------------------------------------------------------------
			     RAINMAKER - Iron Maiden
-----------------------------------------------------------------------------

Tabbed By: Ignacio Coco Vespoli
e-mail: cocofuhgawz@hotmail.com

Also check my guitar tabs for this song!!! the version number two!

Tuning: Normal

INTRO
G|----------------|----------------|----------------|-----------------||
D|----------------|----------------|----------------|-----------------||
A|--5--5-5-5-5-5--|----------------|--8--8-8-8-8-8--|--7--7-7-7-7-7---||
E|----------------|--6--6-6-6-6-6--|----------------|-----------------||


VERSE
G|----------------|----------------|----------------|-----------------||
D|----------------|----------------|----------------|-----------------||
A|--5--5-5-5-5-5--|----------------|--8--8-8-8-8-8--|--7--7-7-7-7-7---||
E|----------------|--6--6-6-6-6-6--|----------------|-----------------||
       p.m......        p.m......        p.m......        p.m......


BRIDGE
G|-----------------------|------------------------||
D|-----------------------|------------------------||
A|-----------------------|------------------------||
E|--6-6-6-6-6-6-6-6-6-6--|--8-8-8-8-8-8-8-8-8-8---||


CHORUS
G|-------------|-------------|-------------|-------------|
D|-------------|-------------|-------------|-------------|
A|--5-5-5-5-5--|--8-8-8-8-8--|-------------|-------------|
E|-------------|-------------|--6-6-6-6-6--|--8-8-8-8-8--|

G|-------------|-------------|-------------|-------------|
D|-------------|-------------|-------------|-------------|
A|-------------|-------------|-------------|-------------|
E|--3-3-3-3-3--|--6-6-6-6-6--|--5-5-5-5-5--|--8-8-8-8-8--|

G|-------------|-------------|-------------|-------------|
D|-------------|-------------|-------------|-------------|
A|--5-5-5-5-5--|--8-8-8-8-8--|-------------|-------------|
E|-------------|-------------|--6-6-6-6-6--|--8-8-8-8-8--|

G|-------------|-------------|-----------------------||
D|-------------|-------------|-----------------------||
A|-------------|-------------|-----------------------||
E|--3-3-3-3-3--|--6-6-6-6-6--|--8-8-8-8-8-8-8-8-8-8--||


CHORUS 2
The Guitars play the riffs but in the end the bass joins with:
G|-----------|------------||
D|-----------|------------||
A|--8-8-8-8--|--7-7-7-7---||
E|-----------|------------||


SOLO
Same as intro but with some changes in the rythm
G|----------------|----------------|----------------|-----------------||
D|----------------|----------------|----------------|-----------------||
A|--5--5-5-5-5-5--|----------------|--8--8-8-8-8-8--|--7--7-7-7-7-7---||
E|----------------|--6--6-6-6-6-6--|----------------|-----------------||


HARMONIZED SOLO
Same as intro but with some changes in the rythm, it is impossible to tab this part 
it has got very small changes, so dont bother looking for the right rythm, just play the 
here
G|----------------|----------------|----------------|-----------------||
D|----------------|----------------|----------------|-----------------||
A|--5--5-5-5-5-5--|----------------|--8--8-8-8-8-8--|--7--7-7-7-7-7---||
E|----------------|--6--6-6-6-6-6--|----------------|-----------------||


END
G|----------------|----------------|----------------|-----------------|
D|----------------|----------------|----------------|-----------------|
A|--5--5-5-5-5-5--|----------------|--8--8-8-8-8-8--|--7--7-7-7-7-7---|
E|----------------|--6--6-6-6-6-6--|----------------|-----------------|

G|----------------|----------------|----------------|-----------------|
D|----------------|----------------|----------------|-----------------|
A|--5--5-5-5-5-5--|----------------|--8--8-8-8-8-8--|--7--7-7-7-7-7---|
E|----------------|--6--6-6-6-6-6--|----------------|-----------------|

G|-----------|-----------|-----------|-----------|------------||
D|-----------|-----------|-----------|-----------|------------||
A|--8-8-8-8--|--7-7-7-7--|--8-8-8-8--|--7-7-7-7--|--8-8--5/---||
E|-----------|-----------|-----------|-----------|------------||


 /  slide up
   slide down
 h  hammer-on
 p  pull-off
 ~  vibrato
 +  harmonic
 x  Mute note
===============================================================================
Comments? Send me an e-mail!!!

Cмотрите также: басс табулатура к песне Reincarnation Of Benjamin Breeg