Добавьте AllTabs в закладки Ctrl+D

Prowler  табулатура

  Исполнитель: Iron Maiden Прислал:
Prowler

Iron Maiden


Song:   Prowler
Artist: Iron Maiden
Album:  Iron Maiden

Tabbed by: Raza-


== INTRO ==

(0:00)

Riff1

   E5                            4x
e|---------------------------------|
B|---------------------------------|
G|-9-9-9-----9-----9---9-9---9-9-9-|
D|-9-9-9-----9-----9---9-9---9-9-9-|
A|-7-7-7-x-x-7-x-x-7-x-7-7-x-7-7-7-|
E|---------------------------------|

   D5                                E5
e|---------------------------------|---------------------------------|
B|---------------------------------|---------------------------------|
G|-7-7-7-----7-----7---7-7---7-7-7-|-9-9-9-----9-----9---9-9---9-9-9-|
D|-7-7-7-----7-----7---7-7---7-7-7-|-9-9-9-----9-----9---9-9---9-9-9-|
A|-5-5-5-x-x-5-x-x-5-x-5-5-x-5-5-5-|-7-7-7-x-x-7-x-x-7-x-7-7-x-7-7-7-|
E|---------------------------------|---------------------------------|

 E5 E5 D5 E5

Lead 1 (0:06)
(starts when E5 is played the 3rd time)

e|------------------------|-------------------------|
B|------------------------|-------------------------|
G|-/12-11-12b14r12p11-12-|--/12-11-12b14r12p11-12-|
D|------------------------|-------------------------|
A|------------------------|-------------------------|
E|------------------------|-------------------------|

                                 keep on hammering
e|--------------------------|-----------------------|
B|--------------------------|-----------------------|
G|-/12-11-12b14r12p11-12p11|7h9p7h9...........p7h9-|
D|--------------------------|-----------------------|
A|--------------------------|-----------------------|
E|--------------------------|-----------------------|

== VERSE1 ==

(0:27)

E5 E5 D5 E5 (Riff1 + Lead1)

At the end: (0:35)

e|----------------------|
B|----------------------|
G|--9-7---7~------------|
D|------9----9-7h9p7----|
A|-------------------7-|
E|----------------------|

E5 E5 D5 (Riff1 + Lead1)

   E5              G5      A5
e|---------------------------------|
B|---------------------------------|
G|-9-9-9-----9---------------------|
D|-9-9-9-----9-----5-------7-------|
A|-7-7-7-x-x-7-x-x-5-------7-------|
E|-----------------3-------5-------|

== VERSE2 ==

(0:46)

Riff2 (play 2x)

   F5                                      2x  E5     G5  A5  D5
e|-------------------------------------------|------|-----------|
B|-------------------------------------------|------|-----------|
G|-10-10-10-----10-----10---10-10---10-10-10-|------|---------7-|
D|-10-10-10-----10-----10---10-10---10-10-10-|-2----|-5---7---7-|
A|--8--8--8-x-x--8-x-x--8-x--8--8-x--8--8--8-|-2----|-5---7---5-|
E|-------------------------------------------|-0----|-3---5-----|

   E5
e|------|---------------------|
B|------|---------------------|
G|-9----|-14b16r14p12-14-12--|
D|-9----|---------------------|
A|-7----|---------------------|
E|------|---------------------|

== CHORUS ==

(1:06)

e|------------------------|------------------------|
B|------------------------|------------------------|
G|---12-11-9-7-h9p7h9p7h9-|---12-11-9-7-h9p7h9p7h9-|
D|------------------------|------------------------|
A|------------------------|------------------------|
E|------------------------|------------------------|
 |                        |                        |
 | C5                     | D5                     |
e|------------------------|------------------------|
B|------------------------|------------------------|
G|-5----------------------|-7----------------------|
D|-5----------------------|-7----------------------|
A|-3----------------------|-5----------------------|
E|------------------------|------------------------|

                                 2x
e|---------------------------------|------------------------|
B|---------------------------------|------------------------|
G|---/12----11----12b14r12p11-12--|---12-11-9-7-h9p7h9p7h9-|
D|---------------------------------|------------------------|
A|---------------------------------|------------------------|
E|---------------------------------|------------------------|
 |                                 |                        |
 | E5                              | C5                     |
e|---------------------------------|------------------------|
B|---------------------------------|------------------------|
G|-9-9-9-----9-----9---9-9---9-9-9-|-5----------------------|
D|-9-9-9-----9-----9---9-9---9-9-9-|-5----------------------|
A|-7-7-7-x-x-7-x-x-7-x-7-7-x-7-7-7-|-3----------------------|
E|---------------------------------|------------------------|


e|-------------------------|------------------------|
B|-------------------------|------------------------|
G|---12-11-9-7-h9p7h9p7h9p7|h9~---------------------|
D|-------------------------|------------------------|
A|-------------------------|------------------------|
E|-------------------------|------------------------|
 |                         |                        |
 | D5                      | E5                     |
e|-------------------------|------------------------|
B|-------------------------|------------------------|
G|-7-----------------------|-9----------------------|
D|-7-----------------------|-9----------------------|
A|-5-----------------------|-7----------------------|
E|-------------------------|------------------------|

== INTERLUDE ==

(1:24)

               12x
e|----------------|
B|-12-10-8-7-8-10-|
G|-12-11-9-7-9-11-|
D|----------------|
A|----------------|
E|----------------|

At 5th time starts (play 2x):

   E5   F#5  A5   E5
e|----|----|----|----|
B|----|----|----|----|
G|-9--|----|----|-9--|
D|-9--|-4--|-7--|-9--|
A|-7--|-4--|-7--|-7--|
E|----|-2--|-5--|----|


Lead2 (1:46) (play 2x)

e|-----------------------------|-----------------------------|
B|-5p3p0-5p3p0-5p3p0-5p3p0-5-3-|-5p3p0-5p3p0-5p3p0-5p3p0-5-3-|
G|-----------------------------|-----------------------------|
D|-----------------------------|-----------------------------|
A|-----------------------------|-----------------------------|
E|-----------------------------|-----------------------------|
 |                             |                             |
e|-----------------------------|-----------------------------|
B|-----------------------------|-----------------------------|
G|-----------------------------|-----------------------------|
D|-----------------------------|-----------------------------|
A|-7p5---7p5---7p5---7p5---7-5-|-7p5---7p5---7p5---7p5---7-5-|
E|-----7-----7-----7-----7-----|-----7-----7-----7-----7-----|

                                 1st time
e|-5p3p0-5p3p0-5p3p0-5p3p0-5-3-|-----------------------------|
B|-----------------------------|-5p3p0-5p3p0-5p3p0-5p3p0-5-3-|
G|-----------------------------|-----------------------------|
D|-----------------------------|-----------------------------|
A|-----------------------------|-----------------------------|
E|-----------------------------|-----------------------------|
 |                             |                             |
e|-----------------------------|-----------------------------|
B|-----------------------------|-----------------------------|
G|-----------------------------|-----------------------------|
D|-7p5---7p5---7p5---7p5---7-5-|-----------------------------|
A|-----7-----7-----7-----7-----|-7p5---7p5---7p5---7p5---7-5-|
E|-----------------------------|-----7-----7-----7-----7-----|

   2nd time
e|---------------------------------------------------|
B|-5p3h5p3h5p3h5p3p5p3h5p3h5p3h5p3h5p3h5p3h5p3h5~----|
G|---------------------------------------------------|
D|---------------------------------------------------|
A|---------------------------------------------------|
E|---------------------------------------------------|

== SOLO ==

(1:59)

Riff3 (Rhythm for solo)

    E5                            D5
e|------------------------------|-----------------------------|
B|------------------------------|-----------------------------|
G|--9--9-9-9--9-9-9--9-9-9--9-9-|-7--7-7-7--7-7-7--7-7-7--7-7-|
D|--9--9-9-9--9-9-9--9-9-9--9-9-|-7--7-7-7--7-7-7--7-7-7--7-7-|
A|--7--7-7-7--7-7-7--7-7-7--7-7-|-5--5-5-5--5-5-5--5-5-5--5-5-|
E|------------------------------|-----------------------------|

    C5                            B5            C5     C5 D5
e|------------------------------|-----------------------------|
B|------------------------------|-----------------------------|
G|--5--5-5-5--5-5-5--5-5-5--5-5-|-4--4-4-4--4-4-5------5--7---|
D|--5--5-5-5--5-5-5--5-5-5--5-5-|-4--4-4-4--4-4-5------5--7---|
A|--3--3-3-3--3-3-3--3-3-3--3-3-|-2--2-2-2--2-2-3------3--5---|
E|------------------------------|-----------------------------|

Play part above 4 times and then just:

    E5                            D5
e|------------------------------|-----------------------------|
B|------------------------------|-----------------------------|
G|--9--9-9-9--9-9-9--9-9-9--9-9-|-7--7-7-7--7-7-7--7-7-7--7-7-|
D|--9--9-9-9--9-9-9--9-9-9--9-9-|-7--7-7-7--7-7-7--7-7-7--7-7-|
A|--7--7-7-7--7-7-7--7-7-7--7-7-|-5--5-5-5--5-5-5--5-5-5--5-5-|
E|------------------------------|-----------------------------|

At the 4th time this starts: (2:20)

             6x
e|-------------|
B|-------------|
G|-12-11-9-7-9-|
D|-------------|
A|-------------|
E|-------------|

== CHORUS ==

(2:30)

== VERSE1 ==

(2:45)

== VERSE2 ==

(3:05)

== CHORUS ==

(3:25)

End with: (3:37)

e|--------------------|
B|-------------15b17~-| Unfortunately I couldn't figure out the fast stuff
G|-12-11-9-7-9--------| that is played here.
D|--------------------|
A|--------------------|
E|--------------------|

   E5                                E5      E5
e|---------------------------------|-------|-------|
B|---------------------------------|-------|-------|
G|-9-9-9-9-9-9-9-9-9-9-9-9-9-9-9-9-|-9~----|-9----|
D|-9-9-9-9-9-9-9-9-9-9-9-9-9-9-9-9-|-9~----|-9----|
A|-7-7-7-7-7-7-7-7-7-7-7-7-7-7-7-7-|-7~----|-7----|
E|---------------------------------|-------|-------|

| /  slide up
|   slide down
| h  hammer-on
| p  pull-off
| ~  vibrato
| +  harmonic
| x  Mute note

Cмотрите также: басс табулатура к песне Prowler