Добавьте AllTabs в закладки Ctrl+D

Prowler  бассовая партия

  Исполнитель: Iron Maiden Прислал:
Prowler

Iron Maiden


Iron Maiden - Prowler

Intro
  Q=180
 4/4
  Gtr I
|---------|---------|---------|-----|
|---------|---------|---------|-----|
|---------|---------|---------|-----|
|---------|---------|---------|-----|


  E
|-----------|-----------|-----------|-----------|
|-----------|-----------|-----------|--------7--|
|-7--------|--------5--|-7--------|------7----|
|-----------|------7----|-----------|-----------|


  D                       E
|-----------|-----------|----------|--------------|
|-----------|-----------|----------|--------------|
|-5--------|--------5--|-7--------|-(7)-------5--|
|-----------|------7----|----------|---------7----|


  E
|-----------|-----------|-----------|-----------|
|-----------|-----------|-----------|--------7--|
|-7--------|--------5--|-7--------|------7----|
|-----------|------7----|-----------|-----------|


  D                       E
|-----------|-----------|-9--------|-9-7-----------|
|-----------|-----------|----------|------9--7-----|
|-5--------|--------5--|----------|-----------10--|
|-----------|------7----|----------|---------------|


 Verse
  E
|-----------------|-----------------|-----------------|----------12-14-16-12--|
|-----------------|-----------------|-------------7-9-|-14-14-14--------------|
|-7-7-7-7-7-7-7-7-|-7-7-7-7-7-7-7-7-|-7-7-7-7-7-7-----|-----------------------|
|-----------------|-----------------|-----------------|-----------------------|


  D                                   E
|-----------------|-----------------|-----------------|-------------------|
|-----------------|-----------------|-----------------|-------------------|
|-5-5-5-5-5-5-5-5-|-5-5-5-5-5-5-5-5-|-7-7-7-7-7-7-7-7-|-7-5---5-(5)-------|
|-----------------|-----------------|-----------------|-----7-------7-5-3-|


  E
|-----------------|-----------------|-----------------|-9-9-9-9-9-7----|
|-----------------|-----------------|-------------7-9-|-------------9--|
|-7-7-7-7-7-7-7-7-|-7-7-7-7-7-7-7-7-|-7-7-7-7-7-7-----|----------------|
|-----------------|-----------------|-----------------|----------------|


  D                                   E
|-----------------|-----------------|-----------------|---------------|
|-----------------|-----------------|-----------------|---------------|
|-5-5-5-5-5-5-5-5-|-5-5-5-5-5-5-5-5-|-7-7-7-7-7-7-7-7-|---------------|
|-----------------|-----------------|-----------------|-3---5-(5)--3--|


 Pre-Chorus
  F
|-----------------|-----------------|-------------------|-9-9-9-9-7-7-----|
|-----------------|-----------------|-10-10-10-9-9-9-7--|-------------10--|
|-8-8-8-8-8-8-8-8-|-8-8-8-8-8-8-8-8-|-------------------|-----------------|
|-----------------|-----------------|-------------------|-----------------|


  E              G   A      B    E
|--------------|---------------|--------------|------------------|
|--------------|---------------|--------------|------------------|
|--------------|---------------|--------------|------------------|
|-0--0--0-0-0--|-3---5-(5)--7--|-0--0--0-0-0--|-5-4-3-2-(2)-1-0--|


  F
|-----------------|-----------------|-------------------|-9-9-9-9-7-7-----|
|-----------------|-----------------|-10-10-10-9-9-9-7--|-------------10--|
|-8-8-8-8-8-8-8-8-|-8-8-8-8-8-8-8-8-|-------------------|-----------------|
|-----------------|-----------------|-------------------|-----------------|


  E              G   A      B    E
|--------------|---------------|--------------|------------------|
|--------------|---------------|--------------|------------------|
|--------------|---------------|--------------|------------------|
|-0--0--0-0-0--|-3---5-(5)--7--|-0--0--0-0-0--|-5-4-3-2-(2)-1-0--|


 Chorus
  C                        D
|----------|-------------|----------|--------|
|----------|-------------|----------|--------|
|-3--------|-(3)-----3---|-5--------|-(5)----|
|----------|-------------|----------|--------|


  E
|-----------------|-----------------|-----------------|-----------------|
|-----------------|-----------------|-----------------|-----------------|
|-7-7-7-7-7-7-7-7-|-7-7-7-7-7-7-7-7-|-7-7-7-7-7-7-7-7-|-7-7---5-7-7-----|
|-----------------|-----------------|-----------------|-----7-------7-5-|


  C                        D
|----------|-------------|----------|--------------|
|----------|-------------|----------|--------------|
|-3--------|-(3)-----3---|-5--------|-7-5----------|
|----------|-------------|----------|------7--5-3--|


  E
|----------|--------||
|----------|--------||
|----------|--------||
|-0--------|-(0)----||


 Interlude
  Q=120
|---------|---------|---------|-----|
|---------|---------|---------|-----|
|---------|---------|---------|-----|
|---------|---------|---------|-----|


  E          F#         A          E
|----------|----------|----------|------|
|----------|-4--------|-7--------|------|
|-7--------|----------|----------|-7----|
|----------|----------|----------|------|


  E          F#         A          E
|----------|----------|----------|------|
|----------|-4--------|-7--------|------|
|-7--------|----------|----------|-7----|
|----------|----------|----------|------|


  Q=135
|-----------------------------|-----------------------------|
|-2-0---2-0---2-0---2-0---2-0-|-2-0---2-0---2-0---2-0---2-0-|
|-----2-----2-----2-----2-----|-----2-----2-----2-----2-----|
|-----------------------------|-----------------------------|


|-2-0---2-0---2-0---2-0---2-0-|-----------------------------|
|-----2-----2-----2-----2-----|-2-0---2-0---2-0---2-0---2-0-|
|-----------------------------|-----2-----2-----2-----2-----|
|-----------------------------|-----------------------------|


|-----------------------------|-----------------------------|
|-2-0---2-0---2-0---2-0---2-0-|-2-0---2-0---2-0---2-0---2-0-|
|-----2-----2-----2-----2-----|-----2-----2-----2-----2-----|
|-----------------------------|-----------------------------|


|-2-0---2-0---2-0---2-0---2-0-|--------------------------|
|-----2-----2-----2-----2-----|--------------------------|
|-----------------------------|-7-7-7--7-7-(7)-7--5-6----|
|-----------------------------|--------------------------|


 Solo - Dennis Stratton
  E                     D
|---------------------|---------------------|
|---------------------|-----------4-(4)-4-7-|
|-7-7-7-7-7-7-(7)-7-7-|-5-5-5-5-5-----------|
|---------------------|---------------------|


  C                     B       C       D
|---------------------|--------------------|
|---------------------|--------------------|
|-3-3-3-3-3-3-(3)-3-3-|-2-2-2-2-3-3-(3)-5--|
|---------------------|--------------------|


  E                     D
|---------------------|---------------------|
|---------------------|-----------4-(4)-4-7-|
|-7-7-7-7-7-7-(7)-7-7-|-5-5-5-5-5-----------|
|---------------------|---------------------|


  C                     B       C       D
|---------------------|--------------------|
|---------------------|--------------------|
|-3-3-3-3-3-3-(3)-3-3-|-2-2-2-2-3-3-(3)-5--|
|---------------------|--------------------|


  E                     D
|---------------------|---------------------|
|---------------------|-----------4-(4)-4-7-|
|-7-7-7-7-7-7-(7)-7-7-|-5-5-5-5-5-----------|
|---------------------|---------------------|


  C                     B       C       D
|---------------------|--------------------|
|---------------------|--------------------|
|-3-3-3-3-3-3-(3)-3-3-|-2-2-2-2-3-3-(3)-5--|
|---------------------|--------------------|


 Chorus 2
  E                   D
|-------------------|-------------------|
|-------------------|-------------------|
|-7-7-7-7-7-7-(7)-7-|-5-5-5-5-5-5-(5)-5-|
|-------------------|-------------------|


  C                   B       C       D
|-------------------|-------------------|
|-------------------|-------------------|
|-3-3-3-3-3-3-(3)-3-|-2-2-2-2-3-3-(3)-5-|
|-------------------|-------------------|


                                           Q=180
  E                   D                    C
|-------------------|-------------------||----------|--------|
|-------------------|-------------------||----------|--------|
|-7-7-7-7-7-7-(7)-7-|-5-5-5-5-5-5-(5)-5-||-3--------|-(3)----|
|-------------------|-------------------||----------|--------|


  D
|----------|--------|
|----------|--------|
|-5--------|-(5)----|
|----------|--------|


 Verse 2
  E
|-----------------|-----------------|-----------------|-----------------|
|-----------------|-----------------|-----------------|-----------------|
|-7-7-7-7-7-7-7-7-|-7-7-7-7-7-7-7-7-|-7-7-7-7-7-7-7-7-|-7-7-5---5---5-7-|
|-----------------|-----------------|-----------------|-------7---7-----|


  C                       D
|----------|------------|----------|--------||
|----------|------------|----------|--------||
|-3--------|-(3)--------|-5--------|-(5)----||
|----------|------------|----------|--------||


  E
|-----------------|-----------------|-----------------|----------12-14-16-12--|
|-----------------|-----------------|-------------7-9-|-14-14-14--------------|
|-7-7-7-7-7-7-7-7-|-7-7-7-7-7-7-7-7-|-7-7-7-7-7-7-----|-----------------------|
|-----------------|-----------------|-----------------|-----------------------|


  D                                   E
|-----------------|-----------------|-----------------|-------------------|
|-----------------|-----------------|-----------------|-------------------|
|-5-5-5-5-5-5-5-5-|-5-5-5-5-5-5-5-5-|-7-7-7-7-7-7-7-7-|-7-5---5-(5)-------|
|-----------------|-----------------|-----------------|-----7-------7-5-3-|


  E
|-----------------|-----------------|-----------------|-9-9-9-9-9-7----|
|-----------------|-----------------|-------------7-9-|-------------9--|
|-7-7-7-7-7-7-7-7-|-7-7-7-7-7-7-7-7-|-7-7-7-7-7-7-----|----------------|
|-----------------|-----------------|-----------------|----------------|


  D                                   E                 G   A      G
|-----------------|-----------------|-----------------|---------------|
|-----------------|-----------------|-----------------|---------------|
|-5-5-5-5-5-5-5-5-|-5-5-5-5-5-5-5-5-|-7-7-7-7-7-7-7-7-|---------------|
|-----------------|-----------------|-----------------|-3---5-(5)--3--|


 Pre-Chorus
  F
|-----------------|-----------------|-------------------|-9-9-9-9-7-7-----|
|-----------------|-----------------|-10-10-10-9-9-9-7--|-------------10--|
|-8-8-8-8-8-8-8-8-|-8-8-8-8-8-8-8-8-|-------------------|-----------------|
|-----------------|-----------------|-------------------|-----------------|


  E              G   A      B    E
|--------------|---------------|--------------|------------------|
|--------------|---------------|--------------|------------------|
|--------------|---------------|--------------|------------------|
|-0--0--0-0-0--|-3---5-(5)--7--|-0--0--0-0-0--|-5-4-3-2-(2)-1-0--|


  F
|-----------------|-----------------|-------------------|-9-9-9-9-7-7-----|
|-----------------|-----------------|-10-10-10-9-9-9-7--|-------------10--|
|-8-8-8-8-8-8-8-8-|-8-8-8-8-8-8-8-8-|-------------------|-----------------|
|-----------------|-----------------|-------------------|-----------------|


  E              G   A      B    E
|--------------|---------------|--------------|------------------|
|--------------|---------------|--------------|------------------|
|--------------|---------------|--------------|------------------|
|-0--0--0-0-0--|-3---5-(5)--7--|-0--0--0-0-0--|-5-4-3-2-(2)-1-0--|


 Out-Chorus
  C                       D
|----------|------------|----------|--------|
|----------|------------|----------|--------|
|-3--------|-(3)--------|-5--------|-(5)----|
|----------|------------|----------|--------|


  E
|-----------------|-----------------|-----------------|-----------------|
|-----------------|-----------------|-----------------|-----------------|
|-7-7-7-7-7-7-7-7-|-7-7-7-7-7-7-7-7-|-7-7-7-7-7-7-7-7-|-7-7---5-7-7-----|
|-----------------|-----------------|-----------------|-----7-------7-5-|


  C                       D
|----------|------------|----------|--------|
|----------|------------|----------|--------|
|-3--------|-(3)--------|-5--------|-(5)----|
|----------|------------|----------|--------|


  E
  TP          TP          TP          TP
|----------|------------|----------|--------|
|----------|------------|----------|--------|
|----------|------------|----------|--------|
|-0--------|-(0)--------|-0--------|-(0)----|


  E
  TP
|--------------|-----------------|----------|----------*|
|--------------|-----------------|----------|----------*|
|--------------|-----------------|----------|-7--------*|
|-0----0-0-0-0-|-0-0-0-0-0-0-0-0-|-0--------|----------*|



Prowler
Steve Harris

Walking through the city, looking oh so pretty,
I've just got to find my way.
See the ladies flashing. All there legs and lashes.
I've just got to find my way.

Well you see me crawling through the bushes with it open wide.
What you seeing girl?
Can't you believe that feeling, can't you believe it,
Can't you believe your eyes?
It's the real thing girl.

Got me feeling myself and reeling around,
Got me talking but feel like walking around.
Got me feeling myself and reeling a...
Got me talking but nothing's with me...
Got me feeling myself and reeling around.


Thank you and have fun!

Cмотрите также: табулатура к песне Purgatory