Добавьте AllTabs в закладки Ctrl+D

Moonchild  табулатура

  Исполнитель: Iron Maiden Прислал:
Moonchild

Iron Maiden


Band- Iron Maiden
Song- Moonchild

all tuned E A D G B E
Gtr I - 'Dave Murray - dist electric'
Gtr II - 'Adrian Smith - dist electric'
Gtr III - 'acoustic'
Gtr IV - 'synth arr. for guitar'

Spoken Intro
  Q=130
 4/4                   5/4            7/4                 4/4
  Gtr III
  W          W          H.      H      W        +H.        W
|-0--------|-2--------|---------0----|-0--------(0)------|-0----|
|-0--------|-3--------|-1-------1----|-0--------(0)------|-0----|
|-4--------|-2--------|-2-------0----|-4--------(4)------|-4----|
|-2--------|-0--------|-2-------2----|-2--------(2)------|-2----|
|-2--------|-0--------|-0-------3----|-2--------(2)------|-2----|
|-0--------|----------|--------------|-0--------(0)------|-0----|


            7/4                4/4
  W          H.      W          W
|-2--------|---------0--------|-2----|
|-3--------|-1-------1--------|-3----|
|-2--------|-2-------0--------|-2----|
|-0--------|-2-------2--------|-0----|
|-0--------|-0-------3--------|-0----|
|----------|------------------|------|


              Intro
  Gtr I    Gtr IV
  

Cмотрите также: табулатура к песне Mother Russia