Добавьте AllTabs в закладки Ctrl+D

Longest Day Intro  табулатура

  Исполнитель: Iron Maiden Прислал:
Longest Day Intro

Iron Maiden


-------------------------------------------------------------------------------
			     The Longest Day - Iron Maiden
                             A Matter of Life and Death
-------------------------------------------------------------------------------
Tabbed by: Alhambra

p = pull-off
h = hammer-on


Tuning: E A D G B e

e|----------------------------------------------------------------------------------------|
B|-------------------3----------------------------------------------3---------------------|
G|---4p2-4---4---5-----5----4p2-4---4---5---2-2h4---4p2-4---4---5-----5---4p2-4---4---4---|
D|-2-------2---2---2-----2--------2---2---2-------2-------2---2---2-----2-------2---2-----|
A|----------------------------------------------------------------------------------------|
E|----------------------------------------------------------------------------------------|

e|----------------------------------------------------------------------------------------|
B|----------------------------------------------------------------------------------------|
G|-------------------2---------------------------------------------2----------------------|
D|---4p2-4---4---5-----5---4p2-4---4---5---2-2h4---4p2-4---4---5-----5---4p2-4---4---4----|
A|-2-------2---2---2-----2-------2---2---2-------2-------2---2---2-----2-------2---2------|
E|----------------------------------------------------------------------------------------|

Cмотрите также: аккорды к песне Look For The Truth