Добавьте AllTabs в закладки Ctrl+D

Face In The Sand  бассовая партия

  Исполнитель: Iron Maiden Прислал:
Face In The Sand

Iron Maiden


This is correct because i have altered evrything, it was worng before

the intro is just guitar, then it goes into:

------------------------------------------|
------------------------------------------|
------------------------------------------|
---0000000000000000000000000000-----------|

it does that for a while, but i like to join in with the guitar part, that goes:
Riff 1
----------------------------5----7----------|
----------------------------5----7----------|
--9-10----7-9---5-7---------3----5----------|
--------0------0-----00000------------------|

Riff 2
|-----------------------------------------------------------------------|
|-----------------------------------------------------------------------|
|-----------------------------------------------------------------------|
|7-7-7-7-8-8-10-10-7-7-7-7-8-8-10-10-7-7-7-7-8-8-10-10-7-7-7-7-8-8-10-10|

Then goes into riff 1 

Then riff 2

Then for the chorus

|-9---12---5----7----2----5----7--|
|-9---12---5----7----2----5----5--|
|-7---10---3----5----0----3----5--|
|---------------------------------| X4

Backing for Solo
|-------------------------|
|-------------------------|
|-------------------------|
|0-0-0-0-0-0-0-0-0-0-3-3-5| X3

|------------------------------------|
|-5--5--5--5--5--5--7--7--7--7--7--7-|
|-3--3--3--3--3--3--5--5--5--5--5--5-|
|------------------------------------|

Repeat solo backing then:
Riff 2
Chorus X8
Intro to finish

Cмотрите также: табулатура к песне Fates Warning