Добавьте AllTabs в закладки Ctrl+D

Die With Your Boots On  табулатура

  Исполнитель: Iron Maiden Прислал:
Die With Your Boots On

Iron Maiden


IRON MAIDEN

Die With your Boots On

.  - palm mute           /  - slide up to
  - slide down to       ~  - vibrato
h  - hammer on           b  - Bend
p  - pull off            Suffixes for bend
t  - tap                 f  - full bend    h - half bend
ph - pinched harmonic    q  - quarter bend t - tap bend
*  - see comment         ^  - Hold bend    r release bend
x  - Stuccatto           ~  - vibrato bend
,  - slight palm mute    () - ghost note, sustained note
  - tremolo note         - Trill

Tunning E A D G B e

|-------------------------------------------------------------------|
|-------------------------------------------------------------------|
|--------------4----------------------------------------------------|
|----5-4-5---5---5--------------------------------------------------|x8
|--7-------7--------------------------------------------------------|
|-------------------------------------------------------------------|

(verse1)
|-------------------------------------------------------------------|
|-------------------------------------------------------------------|
|-0---5-------------------------------------------------------------|
|-2-5-5-5-----------------------------------------------------------|x4
|-2-5-3-5-----------------------------------------------------------|
|-0-3---3-----------------------------------------------------------|

(interlude)
|-------------------------------------------------------------------|
|-2-----------------2-----------------------------------------------|
|-2--3----5---------2--3--------------------------------------------|
|-2--3-3--5-------5-2--3--3-3-5-3-5---------------------------------|x2
|----1-3--3-3-2-0-5----1--3-3-5-3-5---------------------------------|
|------1----------3-------1-1-3-1-3---------------------------------|

(interlude2)
|-------------------------------------------------------------------|
|-------------------------------------------------------------------|
|-------------------------------------------------------------------|
|-3-3-3-3-3-3-3-3-5-5-5-5-5-5-5-7-7-7-7-7---------------------------|x1
|-1-1-1-1-1-1-1-1-3-3-3-3-3-3-3-5-5-5-5-5---------------------------|
|-------------------------------------------------------------------|

(chorus)
|-------------------------------------------------------------------|
|-------------------------------------------------------------------|
|-4-----7-----------------------------------------------------------|
|-2-4---5-7--5---5-7------------------------------------------------|x2
|---2-----5--3-5-3-5------------------------------------------------|
|--------------3-----5p3p0------------------------------------------|

(rythm for solo 1)
|-------------------------------------------------------------------|
|-------------------------------------------------------------------|
|-------------------------------------------------------------------|
|-----2---2---2-----4---4---4-----5---5---5-----7---7---7-----------|x4
|-0-0---0---0---2-2---2---2---3-3---3---3---5-5---5---5-------------|
|-------------------------------------------------------------------|

(adrian interlude)
|-------------------------------------------------------------------|
|-------------------------------------------------------------------|
|-------------------------------------------------------------------|
|-------------------------------------------------------------------|x4
|--7-3---------3-5-7-3-----------10br10-----------------------------|
|------5-3-5-5---------5-3-5----------------------------------------|
do this 4x but on the third one add the bend

(dave interlude)
|-------------------------------------------------------------------|
|-10-8------------8-10-8------------8-10-8---------8h10p8-----------|
|------9-7-9-9-10--------9-7-9-9-10--------9-7-9-9--------9h10p9----|
|-------------------------------------------------------------------|
|-------------------------------------------------------------------|
|-------------------------------------------------------------------|

(rythm for solo 2)
|-------------------------------------------------------------------|
|---------------------------------------2---------------------------|
|----------------------------7-7-7-7-7--2-4-5-7---------------------|
|----------------------------7-7-7-7-7--2-4-5-7---------------------|
|--7-7-7-7-7-7--3-3-3-3-3-3--5-5-5-5-5----2-3-5---------------------|
|--5-5-5-5-5-5--1-1-1-1-1-1-----------------------------------------|

(solo1)
|-12-15-13-12h13p12-------------------------------------------------|
|-------------------15-13-12h13p12-15b----13-15br15br15br15b-13h15--|
|--------------------------------------14---------------------------|
|-------------------------------------------------------------------|
|-------------------------------------------------------------------|
|-------------------------------------------------------------------|

|-12h15p12----12h15p12----12h15p12----12h15p12-15b------------------|
|----------15----------15----------15-------------------------------|
|-------------------------------------------------------------------|
|-------------------------------------------------------------------|
|-------------------------------------------------------------------|
|-------------------------------------------------------------------|
this part is played the same way as the last time.
play this with your 1st,2nd and 3rd finger only

|-------------------------------------------------------------------|
|--13-15-13h15p13-12h13p12h13p12-10h12p10h12-8h10p8h10-5h8p5h8p5----|
|----------------------------------------------------------------7b-|
|-------------------------------------------------------------------|
|-------------------------------------------------------------------|
|-------------------------------------------------------------------|
whilst bend the 7 tremelo pick also

|-------------------------------------------------12h15b------------|
|-------------------------12h13p12h13----12h13h15-------------------|
|-12h14p12h14p12----12h14-------------14----------------------------|
|----------------14-------------------------------------------------|
|-------------------------------------------------------------------|
|-------------------------------------------------------------------|

|----20br20b-17-----------------------------------------------------|
|-17------------20b-------------------------------------------------|
|-------------------------------------------------------------------|
|-------------------------------------------------------------------|
|-------------------------------------------------------------------|
|-------------------------------------------------------------------|

(solo2)
|-----------------------------------5-------------------------------|
|-----8b----8b----8b----8b-5---5-8b---8p5----5----------------------|
|--7b----7b----7b----7b----5---5----------7b---7p5h7----------------|
|----------------------------7--------------------------------------|
|-------------------------------------------------------------------|
|-------------------------------------------------------------------|

|-------------------------------------------------------------------|
|-------------------5h6p5-------10p8---12p8----13p12----15~~~~~-----|
|------------7~~~~~-------7p5--------9------12-------12-------------|
|--3-2---2-3------------------7-------------------------------------|
|------5------------------------------------------------------------|
|-------------------------------------------------------------------|

|-17-20br20r20br20b-17-----20p19p17-20p19p17-20p19p17---------------|
|----------------------20b----------------------------18------------|
|-------------------------------------------------------------------|
|-------------------------------------------------------------------|
|-------------------------------------------------------------------|
|-------------------------------------------------------------------|

|--17-------------------------------------20bp17--------------------|
|-----18-15-17-18------------------20bp17--------20bp17-------------|
|-----------------17br17-14-----------------------------19b---------|
|---------------------------15-12~~~~-------------------------------|
|-------------------------------------------------------------------|
|-------------------------------------------------------------------|

|-------------------------------------------------------------------|
|-------------------------------------------------------------------|
|----------------0--------------------------------------------------|
|----------------2--------------------------------------------------|
|--7-5-----------2--------------------------------------------------|
|------7-6-5-3h5p0--------------------------------------------------|
just repeat interlude 1 and 2 then chorus 4x on the last one do this fill
to finish.

Cмотрите также: табулатура к песне Different World