Добавьте AllTabs в закладки Ctrl+D

Aces High Solo  табулатура

  Исполнитель: Iron Maiden Прислал:
Aces High Solo

Iron Maiden


iron maiden - aces high
SOLO tabbed by thelordofguitar
+++++++++++++++++++++++++++++++


  2:06                    2:12
e|-----------------------------------------------------------------------------------------|
h|-----------------------10b--8------------------------------------------------------------|
g|-9-9-9-9-9-9-9-7-7-7----------9-7-9-7----7-----------------------------------------------|
D|--------------------------------------10---10-7-10-7-------------------------------------|
A|-----------------------------------------------------10-7--------------------------------|
E|-----------------------------------------------------------------------------------------|


   2:15                                                                          2:18
e|-8r7r0-7r5r0--8r7r0-7r5r0--8r7r0-7r5r0--8r7r0-7r5r0--8r7r0-7r5r0--8r7r0-7r5r0------------|
h|-------------------------------------------------------------------------------10b-------|
g|-----------------------------------------------------------------------------------------|
D|-----------------------------------------------------------------------------------------|
A|-----------------------------------------------------------------------------------------|
E|-----------------------------------------------------------------------------------------|


  2:19                                         2:21
e|-------------------------------------12-13-15-17-----------------------------------------|
h|-------------12h13-12h13-13h15-13h15-----------------------------------------------------|
g|-12h14-12h14-----------------------------------------------------------------------------|
D|-----------------------------------------------------------------------------------------|
A|-----------------------------------------------------------------------------------------|
E|-----------------------------------------------------------------------------------------|


  2:22
e|-----------------------------------------------------------------------------------------|
h|--15r12--14r12-14r12--15r12--14r12-14r12--15r12--14r12-14r12--15r12----------------------|
g|-----------------------------------------------------------------------------------------|
D|-----------------------------------------------------------------------------------------|
A|-----------------------------------------------------------------------------------------|
E|-----------------------------------------------------------------------------------------|


  2:25
e|-----------------------------------------------------------------------------------------|
h|-0-0-0-12-0-0-10-0-0-8-0-0-7-0-0-5-0-0-7-0-0-8-0-0-7-0-0-5-0-0-7-0-0-8-0-0-7-------------|
g|-----------------------------------------------------------------------------7b----------|
D|-----------------------------------------------------------------------------------------|
A|-----------------------------------------------------------------------------------------|
E|-----------------------------------------------------------------------------------------|


  2:29
e|-----------------------------------------------------------------------------------------|
h|----7-10-9-7---7---------7---------------------------------------------------------------|
g|-------------9---10-9-7----9-7---7-------------------------------------------------------|
D|-9-----------------------------9---9-7---------------------------------------------------|
A|---------------------------------------9-------------------------------------------------|
E|-----------------------------------------10----------------------------------------------|

  2:33                       2:35
e|--------------------------------------------19s------------------------------------------|
h|-----------------------------15-17-17-15h17----------------------------------------------|
g|-11-10-9-7----------------16-------------------------------------------------------------|
D|-----------9-8-7-------------------------------------------------------------------------|
A|-----------------9-8-7-------------------------------------------------------------------|
E|-----------------------------------------------------------------------------------------|

Cмотрите также: басс табулатура к песне Afraid To Shoot Strangers