Добавьте AllTabs в закладки Ctrl+D

Jesus of Suburbia  табулатура

  Исполнитель: Green Day Прислал:
Jesus of Suburbia

Green Day


Jesus Of Suburbia
Tabbed By: Hugo
                                                                                                                                                                                                                                                               

Key: / or  - Slide up or down
       h    - Hammer
       p    - Pull off



+ Jesus Of Suburbia


Verse x2

e|---------------------------------------------------------------------------|
B|---------------------------------------------------------------------------|
G|--6-6-6-6------------------------------------------------------------------|
D|--6-6-6-6----8-8-8-8--16--4444444444444444--66666666666666-/16-----------|
A|--4-4-4-4----8-8-8-8--16--4444444444444444--66666666666666-/16-----------|
E|-------------6-6-6-6--14--2222222222222222--44444444444444-/14-----------|


Chorus:

e|---------------------------------------------------------------------------|
B|---------------------------------------------------------------------------|
G|---------------------------------------------------------------------------|
D|--4-4-444-6-66-666--4-4-444-6-66-666--4-4-444-6-6666-----------------------|
A|--4-4-444-6-66-666--4-4-444-6-66-666--4-4-444-6-6666-----------------------|
E|--2-2-222-4-44-444--2-2-222-4-44-444--2-2-222-4-4444-----------------------|


Bridge

e|---------------------------------------------------------------------------|
B|---------------------------------------------------------------------------|
G|--6-6------------------6-6-------------------------------------------------|
D|--6-6--666--4-4444444--6-6--666--4-4444-/16-------------------------------|
A|--4-4--666--4-4444444--4-4--666--4-4444-/16-------------------------------|
E|-------444--2-2222222-------444--2-2222-/14-------------------------------|


Verse x2

e|---------------------------------------------------------------------------|
B|---------------------------------------------------------------------------|
G|--6-6-6-6------------------------------------------------------------------|
D|--6-6-6-6----8-8-8-8--16--4444444444444444--66666666666666-/16-----------|
A|--4-4-4-4----8-8-8-8--16--4444444444444444--66666666666666-/16-----------|
E|-------------6-6-6-6--14--2222222222222222--44444444444444-/14-----------|


Chorus:

e|---------------------------------------------------------------------------|
B|---------------------------------------------------------------------------|
G|---------------------------------------------------------------------------|
D|--4-4-444-6-66-666--4-4-444-6-66-666--4-4-444-6-6666-----------------------|
A|--4-4-444-6-66-666--4-4-444-6-66-666--4-4-444-6-6666-----------------------|
E|--2-2-222-4-44-444--2-2-222-4-44-444--2-2-222-4-4444-----------------------|


Bridge

e|---------------------------------------------------------------------------|
B|---------------------------------------------------------------------------|
G|--6-6------------------6-6-------------------------------------------------|
D|--6-6--666--4-4444444--6-6--666--4-4444-/16-------------------------------|
A|--4-4--666--4-4444444--4-4--666--4-4444-/16-------------------------------|
E|-------444--2-2222222-------444--2-2222-/14-------------------------------|



Verse (No Lyrics)

e|---------------------------------------------------------------------------|
B|---------------------------------------------------------------------------|
G|--6-6-6-6------------------------------------------------------------------|
D|--6-6-6-6----8-8-8-8-------4444444444444444--66666666666666-/16-----------|
A|--4-4-4-4----8-8-8-8-------4444444444444444--66666666666666-/16-----------|
E|-------------6-6-6-6-------2222222222222222--44444444444444-/14-----------|


e|---------------------------------------------------------------------------|
B|---------------------------------------------------------------------------|
G|--6-6-6-6------------------------------------------------------------------|
D|--6-6-6-6----3-3-3-3----8-8-8--6-6-6---------------------------------------|
A|--4-4-4-4----3-3-3-3----8-8-8--6-6-6---------------------------------------|
E|-------------1-1-1-1----6-6-6--4-4-4---------------------------------------|



+ City Of The Dammed


Intro (Gtr 1)

e|---------------------------------------------------------------------------|
B|---------------------------------------------------------------------------|
G|---------------------------------------------------------------------------|
D|--4~---------------4/6~~---------------------------------------------------|
A|--4~---------------4/6~~---------------------------------------------------|
E|--2~---------------2/4~~---------------------------------------------------|


Intro (Gtr 2 -Acoustic-)

e|---------------------------------------------------------------------------|
B|---------------------------------------------------------------------------|
G|---------------------------------------------------------------------------|
D|--4--444-444-444-44--6--666-666-666-66-------------------------------------|
A|--4--444-444-444-44--6--666-666-666-66-------------------------------------|
E|--2--222-222-222-22--4--444-444-444-44-------------------------------------|


Verse

(Grt 2 -Acoustic-)

e|---------------------------------------------------------------------------|
B|---------------------------------------------------------------------------|
G|--6-666-66-5-555-55-3-333-33-----------------------------------------------|
D|--6-666-66-5-555-55-3-333-33-6-666-66--------------------------------------|
A|--4-444-44-3-333-33-1-111-11-6-666-66--------------------------------------|
E|-----------------------------4-444-44--------------------------------------|


Gtr 1 and Gtr 2

e|---------------------------------------------------------------------------|
B|---------------------------------------------------------------------------|
G|---------------------------------------------------------------------------|
D|--4-4-4-4-4-4-4-4-6-6-6-6-6-6-6-6------------------------------------------|
A|--4-4-4-4-4-4-4-4-6-6-6-6-6-6-6-6------------------------------------------|
E|--2-2-2-2-2-2-2-2-4-4-4-4-4-4-4-4------------------------------------------|


Gtr 1a

e|---------------------------------------------------------------------------|
B|---------------------------------------------------------------------------|
G|---------------------------------------------------------------------------|
D|---------------------------------------------------------------------------|
A|--4---4h6p43---1---3p1----------------------------------------------------|
E|------------------------4--------------------------------------------------|


Gtr 2a (Acoustic)

e|---------------------------------------------------------------------------|
B|---------------------------------------------------------------------------|
G|--6-666-66-5-555-55-3-333-33-----------------------------------------------|
D|--6-666-66-5-555-55-3-333-33-6-666-66--------------------------------------|
A|--4-444-44-3-333-33-1-111-11-6-666-66--------------------------------------|
E|-----------------------------4-444-44--------------------------------------|


Gtr 1 and Gtr 2

e|---------------------------------------------------------------------------|
B|---------------------------------------------------------------------------|
G|---------------------------------------------------------------------------|
D|--4-4-4-4-4-4-4-4-6-6-6-6-6-6-6-6------------------------------------------|
A|--4-4-4-4-4-4-4-4-6-6-6-6-6-6-6-6------------------------------------------|
E|--2-2-2-2-2-2-2-2-4-4-4-4-4-4-4-4------------------------------------------|




Chorus (Gtr 1 and Gtr 2) x2

e|---------------------------------------------------------------------------|
B|---------------------------------------------------------------------------|
G|------------------66666----------------------------------------------------|
D|--88888---66666---66666---44444---8-8-8-8-6-6-6-6-4-4-4-4-4-4-4-4----------|
A|--88888---66666---44444---44444---8-8-8-8-6-6-6-6-4-4-4-4-4-4-4-4----------|
E|--66666---44444-----------22222---6-6-6-6-4-4-4-4-2-2-2-2-2-2-2-2----------|




Verse 2

(Grt 2 -Acoustic-)

e|---------------------------------------------------------------------------|
B|---------------------------------------------------------------------------|
G|--6-666-66-5-555-55-3-333-33-----------------------------------------------|
D|--6-666-66-5-555-55-3-333-33-6-666-66--------------------------------------|
A|--4-444-44-3-333-33-1-111-11-6-666-66--------------------------------------|
E|-----------------------------4-444-44--------------------------------------|


Gtr 1 and Gtr 2

e|---------------------------------------------------------------------------|
B|---------------------------------------------------------------------------|
G|---------------------------------------------------------------------------|
D|--4-4-4-4-4-4-4-4-6-6-6-6-6-6-6-6------------------------------------------|
A|--4-4-4-4-4-4-4-4-6-6-6-6-6-6-6-6------------------------------------------|
E|--2-2-2-2-2-2-2-2-4-4-4-4-4-4-4-4------------------------------------------|


Gtr 1a

e|---------------------------------------------------------------------------|
B|---------------------------------------------------------------------------|
G|---------------------------------------------------------------------------|
D|---------------------------------------------------------------------------|
A|--4---4h6p43---1---3p1----------------------------------------------------|
E|------------------------4--------------------------------------------------|


Gtr 2a (Acoustic)

e|---------------------------------------------------------------------------|
B|---------------------------------------------------------------------------|
G|--6-666-66-5-555-55-3-333-33-----------------------------------------------|
D|--6-666-66-5-555-55-3-333-33-6-666-66--------------------------------------|
A|--4-444-44-3-333-33-1-111-11-6-666-66--------------------------------------|
E|-----------------------------4-444-44--------------------------------------|


Gtr 1 and Gtr 2

e|---------------------------------------------------------------------------|
B|---------------------------------------------------------------------------|
G|---------------------------------------------------------------------------|
D|--4-4-4-4-4-4-4-4-6-6-6-6-6-6-6-6------------------------------------------|
A|--4-4-4-4-4-4-4-4-6-6-6-6-6-6-6-6------------------------------------------|
E|--2-2-2-2-2-2-2-2-4-4-4-4-4-4-4-4------------------------------------------|



Chorus (Gtr 1 and Gtr 2)

e|---------------------------------------------------------------------------|
B|---------------------------------------------------------------------------|
G|------------------66666----------------------------------------------------|
D|--88888---66666---66666---44444---8-8-8-8-6-6-6-6-4-4-4-4-4-4-4-4----------|
A|--88888---66666---44444---44444---8-8-8-8-6-6-6-6-4-4-4-4-4-4-4-4----------|
E|--66666---44444-----------22222---6-6-6-6-4-4-4-4-2-2-2-2-2-2-2-2----------|


e|---------------------------------------------------------------------------|
B|---------------------------------------------------------------------------|
G|------------------66666----------------------------------------------------|
D|--88888---66666---66666---44444---8-8-8-8-6-6-6-6---4----------------------|
A|--88888---66666---44444---44444---8-8-8-8-6-6-6-6---4-x28------------------|
E|--66666---44444-----------22222---6-6-6-6-4-4-4-4---2----------------------|






+ I Dont Care


Intro (Gtr 1)

e|---------------------------------------------------------------------------|
B|---------------------------------------------------------------------------|
G|--------6-6-6--------6-6-6--------6-6-6------------------------------------|
D|--66-66-6-6-6--66-66-6-6-6--44-44-6-6-6--66-66-666666----------------------|
A|--66-66-4-4-4--66-66-4-4-4--44-44-4-4-4--66-66-666666----------------------|
E|--44-44--------44-44--------22-22--------44-44-444444----------------------|


Intro (Gtr 2)

e|---------------------------------------------------------------------------|
B|-----------------------------------------/7-7--7-7-7--------------------9--|
G|--------------6-6-6--------------10-8-6---------------10-8-6--7-7--7-7-----|
D|--6-6--6-6-6---------6-6--6-6-6--------------------------------------------|
A|---------------------------------------------------------------------------|
E|---------------------------------------------------------------------------|


Gtr 1 and Gtr 2

e|---------------------------------------------------------------------------|
B|---------------------------------------------------------------------------|
G|--------6-6-6--------6-6-6--------6-6-6------------------------------------|
D|--66-66-6-6-6--66-66-6-6-6--44-44-6-6-6--66-66-666666----------------------|
A|--66-66-4-4-4--66-66-4-4-4--44-44-4-4-4--66-66-666666------(x4)------------|
E|--44-44--------44-44--------22-22--------44-44-444444----------------------|




e|---------------------------------------------------------------------------|
B|---------------------------------------------------------------------------|
G|--------6-66-66-66-66-66--------6-66-66-66-66-66--------6-66-66-66-66-66---|
D|--4--6--6-66-66-66-66-66--7--6--6-66-66-66-66-66--7--6--6-66-66-66-66-66---|
A|--4--6--4-44-44-44-44-44--7--6--4-44-44-44-44-44--7--6--4-44-44-44-44-44---|
E|--2--4--------------------5--4--------------------5--4---------------------|


e|---------------------------------------------------------------------------|
B|---------------------------------------------------------------------------|
G|--------6-66-66-66-66-66---------------------------------------------------|
D|--7--6--6-66-66-66-66-66--7--6---------------------------------------------|
A|--7--6--4-44-44-44-44-44--7--6---------------------------------------------|
E|--5--4--------------------5--4---------------------------------------------|



Verse


    Everyone is so full of shit...
e|---------------------------------------------------------------------------|
B|---------------------------------------------------------------------------|
G|---------------------------------------------------------------------------|
D|-----------------------------7--6------------------------------------------|
A|-----------------------------7--6------(x8)--------------------------------|
E|-----------------------------5--4------------------------------------------|


    Land of make belive...
e|---------------------------------------------------------------------------|
B|---------------------------------------------------------------------------|
G|----------------------6----------------------------------------------------|
D|--4-44-44-44-4-6-66-6-6-6--------------------------------------------------|
A|--4-44-44-44-4-6-66-6-4-6--------------(x3)--------------------------------|
E|--2-22-22-22-2-4-44-4---4--------------------------------------------------|


    And I dont belive...
e|---------------------------------------------------------------------------|
B|---------------------------------------------------------------------------|
G|---------------------------------------------------------------------------|
D|--4-44-44-44-4-6-66-6------------------------------------------------------|
A|--4-44-44-44-4-6-66-6------------------------------------------------------|
E|--2-22-22-22-2-4-44-4------------------------------------------------------|


    I dont care...
e|---------------------------------------------------------------------------|
B|---------------------------------------------------------------------------|
G|-------6-66-66-66-66-66----------------------------------------------------|
D|--4-6--6-66-66-66-66-66----------------(x4)--------------------------------|
A|--4-6--4-44-44-44-44-44----------------------------------------------------|
E|--2-4----------------------------------------------------------------------|


e|---------------------------------------------------------------------------|
B|---------------------------------------------------------------------------|
G|-------6--6--6--6----------------------------------------------------------|
D|--4-6--6--6--6--6--6666~---------------------------------------------------|
A|--4-6--4--4--4--4--6666~---------------------------------------------------|
E|--2-4--------------4444~---------------------------------------------------|






+ Derly Beloved


Verse 1

e|---------------------------------------------------------------------------|
B|---------------------------------------------------------------------------|
G|----------3/5-----5/6-----------6/8----------------------------------------|
D|--4/6-----3/5-----5/6-----4/6---6/8----------------------------------------|
A|--4/6-----1/3-----3/4-----4/6---4/6----------------------------------------|
E|--2/4---------------------2/4----------------------------------------------|



Gtr 2 (Acoustic) x2
e|---------------------------------------------------------------------------|
B|---------------------------------------------------------------------------|
G|----------------------5---5---5---55----6---6---6---66--------------8---88-|
D|----6---6---6---66--5-5-5-5-5-5-5-55--6-6-6-6-6-6-6-66----6---66--8-8-8-88-|
A|--6-6-6-6-6-6-6-66--3-3-3-3-3-3-3-33--4-4-4-4-4-4-4-44--6-6-6-66--6-6-6-66-|
E|--4-4-4-4-4-4-4-44--------------------------------------4-4-4-44-----------|


Verse 2

Gtr 1a  x3

  
PM.........................................................................
e|---------------------------------------------------------------------------|
B|---------------------------------------------------------------------------|
G|--------------------5-5-5-5-5-5-5-55--6-6-6-6-6-6-6-66------------8-8-8-88-|
D|--6-6-6-6-6-6-6-66--5-5-5-5-5-5-5-55--6-6-6-6-6-6-6-66--6-6-6-66--8-8-8-88-|
A|--6-6-6-6-6-6-6-66--3-3-3-3-3-3-3-33--4-4-4-4-4-4-4-44--6-6-6-66--6-6-6-66-|
E|--4-4-4-4-4-4-4-44--------------------------------------4-4-4-44-----------|


Gtr 2a (Acoustic) x3

e|---------------------------------------------------------------------------|
B|---------------------------------------------------------------------------|
G|----------------------5---5---5---55----6---6---6---66--------------8---88-|
D|----6---6---6---66--5-5-5-5-5-5-5-55--6-6-6-6-6-6-6-66----6---66--8-8-8-88-|
A|--6-6-6-6-6-6-6-66--3-3-3-3-3-3-3-33--4-4-4-4-4-4-4-44--6-6-6-66--6-6-6-66-|
E|--4-4-4-4-4-4-4-44--------------------------------------4-4-4-44-----------|






+ Tales Of Another Broken Home


Intro

e|---------------------------------------------------------------------------|
B|---------------------------------------------------------------------------|
G|----------6--------6--------6--------6-------------------------------------|
D|--6-----4-6-6----4-6-6----4-6-6----4-6-------------------------------------|
A|--6-----4-4-6----4-4-6----4-4-6----4-4-------------------------------------|
E|--4-----2---4----2---4----2---4----2---------------------------------------|


Verse 1

e|---------------------------------------------------------------------------|
B|---------------------------------------------------------------------------|
G|------------------6--------------------------------------------------------|
D|--66-66666-66--4--6-------------------(x8)---------------------------------|
A|--66-66666-66--4--4--------------------------------------------------------|
E|--44-44444-44--2-----------------------------------------------------------|


Grt 1a

e|---------------------------------------------------------------------------|
B|---------------------------------------------------------------------------|
G|--6---6---6----8---8---8---------------------------------------------------|
D|--6-6-6-6-6----8-6-8-6-8---------------(x2)--------------------------------|
A|--4-6-4-6-4----6-6-6-6-6---------------------------------------------------|
E|----4---4--------4---4-----------------------------------------------------|


Gtr 2a

e|---------------------------------------------------------------------------|
B|---------------------------------------------------------------------------|
G|--6---6---6-------13----13-------------------------------------------------|
D|--6-6-6-6-6----13-13-13-13-13----------(x2)--------------------------------|
A|--4-6-4-6-4----13-11-13-11-13----------------------------------------------|
E|----4---4------11----11----11----------------------------------------------|



Verse 2

e|---------------------------------------------------------------------------|
B|---------------------------------------------------------------------------|
G|------------------6--------------------------------------------------------|
D|--66-66666-66--4--6-------------------(x8)---------------------------------|
A|--66-66666-66--4--4--------------------------------------------------------|
E|--44-44444-44--2-----------------------------------------------------------|


Grt 1b

e|---------------------------------------------------------------------------|
B|---------------------------------------------------------------------------|
G|--6---6---6----8---8---8---------------------------------------------------|
D|--6-6-6-6-6----8-6-8-6-8---------------(x3)--------------------------------|
A|--4-6-4-6-4----6-6-6-6-6---------------------------------------------------|
E|----4---4--------4---4-----------------------------------------------------|

e|---------------------------------------------------------------------------|
B|---------------------------------------------------------------------------|
G|--6---6---6----8---8--------6---------6---------6--------------------------|
D|--6-6-6-6-6----8-6-8-6----4-6-6-----4-6-6-----4-6--------------------------|
A|--4-6-4-6-4----6-6-6-6----4-4-6-----4-4-6-----4-4--------------------------|
E|----4---4--------4---4----2---4-----2---4-----2----------------------------|

Gtr 2b

e|---------------------------------------------------------------------------|
B|---------------------------------------------------------------------------|
G|--6---6---6-------13----13-------------------------------------------------|
D|--6-6-6-6-6----13-13-13-13-13----------(x3)--------------------------------|
A|--4-6-4-6-4----13-11-13-11-13----------------------------------------------|
E|----4---4------11----11----11----------------------------------------------|

e|---------------------------------------------------------------------------|
B|---------------------------------------------------------------------------|
G|--6---6---6-------13----13------6-13-13--13-13--13-13--13-13---------------|
D|--6-6-6-6-6----13-13-13-13----4-6-13-13--13-13--13-13--13-13---------------|
A|--4-6-4-6-4----13-11-13-11----4-4-11-11--11-11--11-11--11-11---------------|
E|----4---4------11----11-------2--------------------------------------------|

e|---------------------------------------------------------------------------|
B|---------------------------------------------------------------------------|
G|----6-13-13--13-13--13-13--13-13-------------------------------------------|
D|--4-6-13-13--13-13--13-13--13-13--4----------------------------------------|
A|--4-4-11-11--11-11--11-11--11-11--4----------------------------------------|
E|--2-------------------------------2----------------------------------------|


Solo (Gtr 1)

e|---------------------------------------------------------------------------|
B|---------------------------------------------------------------------------|
G|------------------6--------------------------------------------------------|
D|--66-66666-66--4--6-------------------(x8)---------------------------------|
A|--66-66666-66--4--4--------------------------------------------------------|
E|--44-44444-44--2-----------------------------------------------------------|

e|---------------------------------------------------------------------------|
B|---------------------------------------------------------------------------|
G|--6---6---6-------13----13-------------------------------------------------|
D|--6-6-6-6-6----13-13-13-13-13---------(x2)---------------------------------|
A|--4-6-4-6-4----13-11-13-11-13----------------------------------------------|
E|----4---4------11----11----11----------------------------------------------|


Solo (Gtr 2)

e|---------------------------------------------------------------------------|
B|---------------------------------------------------------------------------|
G|--5/8-----6/10--6/8-----65-----3/6--3/5-----------------------------------|
D|--------------------------------------------------(x2)---------------------|
A|--3/6-----4/8---4/6-----43-----1/4--1/3-----------------------------------|
E|---------------------------------------------------------------------------|

e|---------------------------------------------------------------------------|
B|--7p6---9p6---7p6---9p6---7p6------9p8---11p8---9p8---11p8---9p8------(x2)-|
G|------6-----6-----6-----6-----6--------8------8-----8------8-----8---------|
D|---------------------------------------------------------------------------|
A|---------------------------------------------------------------------------|
E|---------------------------------------------------------------------------|



Outro

Gtr 1c

e|---------------------------------------------------------------------------|
B|---------------------------------------------------------------------------|
G|------------------6--------------------------------------------------------|
D|--66-66666-66--4--6-------------------(x3)---------------------------------|
A|--66-66666-66--4--4--------------------------------------------------------|
E|--44-44444-44--2-----------------------------------------------------------|

e|---------------------------------------------------------------------------|
B|---------------------------------------------------------------------------|
G|------------------6-----------6-----------6--------------------------------|
D|--66-66666-66--4--6--6-----4--6--6-----4--6--6-----------------------------|
A|--66-66666-66--4--4--6-----4--4--6-----4--4--6-----------------------------|
E|--44-44444-44--2-----4-----2-----4-----2-----4-----------------------------|


Gtr 2c

e|---------------------------------------------------------------------------|
B|---------------------------------------------------------------------------|
G|------------------6--------------------------------------------------------|
D|--66-66666-66--4--6-------------------(x3)---------------------------------|
A|--66-66666-66--4--4--------------------------------------------------------|
E|--44-44444-44--2-----------------------------------------------------------|

e|---------------------------------------------------------------------------|
B|---------------------------------------------------------------------------|
G|------------------6--13-13--13-13--13-13--13-13----------------------------|
D|--66-66666-66--4--6--13-13--13-13--13-13--13-13----------------------------|
A|--66-66666-66--4--4--11-11--11-11--11-11--11-11----------------------------|
E|--44-44444-44--2-----------------------------------------------------------|

e|---------------------------------------------------------------------------|
B|---------------------------------------------------------------------------|
G|----6-13-13--13-13--13-13--13-13-----6-------------------------------------|
D|--4-6-13-13--13-13--13-13--13-13--4--6--6----------------------------------|
A|--4-4-11-11--11-11--11-11--11-11--4--4--6----------------------------------|
E|--2-------------------------------2-----4----------------------------------|




Cмотрите также: