Добавьте AllTabs в закладки Ctrl+D

Whatsername  табулатура

  Исполнитель: Green Day Прислал:
Whatsername

Green Day


Whatsername
Tabbed By: Hugo
 
                                                                                                                                                                                                                                                               
Tuning: Drop D - ( D A D G B E )


Key :  PM..  - Palm mute
      / or  - Slide up or down
        h    - Hammer



Intro

  PM.................................................................
e|---------------------------------------------------------------------------|
B|---------------------------------------------------------------------------|
G|---------------------------------------------------------------------------|
D|----7-7-7-7-7-7-7-7-7-7-7-7-7-7-7-7-4-4-4-4-4-4-4-4-4-4-4-4-4-4-4-4--------|
A|--0-5-5-5-5-5-5-5-5-5-5-5-5-5-5-5-5-2-2-2-2-2-2-2-2-2-2-2-2-2-2-2-2--------|
D|---------------------------------------------------------------------------|

  PM...............................................................
e|---------------------------------------------------------------------------|
B|---------------------------------------------------------------------------|
G|---------------------------------------------------------------------------|
D|--7-7-7-7-7-7-7-7-7-7-7-7-7-7-7-7-4-4-4-4-4-4-4-4-4-4-4-4-4-4-4-4----------|
A|--5-5-5-5-5-5-5-5-5-5-5-5-5-5-5-5-2-2-2-2-2-2-2-2-2-2-2-2-2-2-2-2----------|
D|---------------------------------------------------------------------------|


Verse 1

  PM...............................................................
e|---------------------------------------------------------------------------|
B|---------------------------------------------------------------------------|
G|---------------------------------------------------------------------------|
D|--7-7-7-7-7-7-7-7-7-7-7-7-7-7-7-7-4-4-4-4-4-4-4-4-4-4-4-4-4-4-4-4----(x2)--|
A|--5-5-5-5-5-5-5-5-5-5-5-5-5-5-5-5-2-2-2-2-2-2-2-2-2-2-2-2-2-2-2-2----------|
D|---------------------------------------------------------------------------|


Chorus

  PM...............................................................
e|---------------------------------------------------------------------------|
B|---------------------------------------------------------------------------|
G|---------------------------------------------------------------------------|
D|--------------------------------------------------4-4-4-4-2-2-2-2----(x3)--|
A|--5-5-5-5-5-5-5-5-0-0-0-0-0-0-0-0-4-4-4-4-4-4-4-4-2-2-2-2-0-0-0-0----------|
D|--5-5-5-5-5-5-5-5-0-0-0-0-0-0-0-0-4-4-4-4-4-4-4-4--------------------------|

  PM...............................
e|---------------------------------------------------------------------------|
B|---------------------------------------------------------------------------|
G|---------------------------------------------------------------------------|
D|---------------------------------------------------------------------------|
A|--5-5-5-5-5-5-5-5-7-7-7-7-7-7-7-7------------------------------------------|
D|--5-5-5-5-5-5-5-5-7-7-7-7-7-7-7-7------------------------------------------|



(Gtr 1)

  PM...............................................................
e|---------------------------------------------------------------------------|
B|---------------------------------------------------------------------------|
G|---------------------------------------------------------------------------|
D|--7-7-7-7-7-7-7-7-7-7-7-7-7-7-7-7-4-4-4-4-4-4-4-4-4-4-4-4-4-4-4-4----(x2)--|
A|--5-5-5-5-5-5-5-5-5-5-5-5-5-5-5-5-2-2-2-2-2-2-2-2-2-2-2-2-2-2-2-2----------|
D|---------------------------------------------------------------------------|


(Gtr 2)

e|---------------------------------------------------------10----------------|
B|--3--5/7--73--0--2--3---------3--5/7--3--0--2--3--------10----------------|
G|---------------------------------------------------------11----------------|
D|---------------------------------------------------------------------------|
A|---------------------------------------------------------------------------|
D|---------------------------------------------------------------------------|





Verse 2


(Gtr 1)

  PM...............................................................
e|---------------------------------------------------------------------------|
B|---------------------------------------------------------------------------|
G|---------------------------------------------------------------------------|
D|--7-7-7-7-7-7-7-7-7-7-7-7-7-7-7-7-4-4-4-4-4-4-4-4-4-4-4-4-4-4-4-4----(x2)--|
A|--5-5-5-5-5-5-5-5-5-5-5-5-5-5-5-5-2-2-2-2-2-2-2-2-2-2-2-2-2-2-2-2----------|
D|---------------------------------------------------------------------------|


(Gtr 2)

e|----------------------------------7----------------------------------------|
B|----------------------------------7----------------------------------------|
G|----------------------------------7----------------------------------------|
D|---------------------------------------------------------------------------|
A|---------------------------------------------------------------------------|
D|---------------------------------------------------------------------------|


e|----------------------------------2----------------------------------------|
B|--3-------------------------------3----------------------------------------|
G|--2-------------------------------4----------------------------------------|
D|--0-------------------------------4----------------------------------------|
A|----------------------------------2----------------------------------------|
D|---------------------------------------------------------------------------|


Chorus


(Gtr 1)

  PM...............................................................
e|---------------------------------------------------------------------------|
B|---------------------------------------------------------------------------|
G|---------------------------------------------------------------------------|
D|--------------------------------------------------4-4-4-4-2-2-2-2----(x3)--|
A|--5-5-5-5-5-5-5-5-0-0-0-0-0-0-0-0-4-4-4-4-4-4-4-4-2-2-2-2-0-0-0-0----------|
D|--5-5-5-5-5-5-5-5-0-0-0-0-0-0-0-0-4-4-4-4-4-4-4-4--------------------------|

  PM...............................
e|---------------------------------------------------------------------------|
B|---------------------------------------------------------------------------|
G|---------------------------------------------------------------------------|
D|---------------------------------------------------------------------------|
A|--5-5-5-5-5-5-5-5-7-7-7-7-7-7-7-7------------------------------------------|
D|--5-5-5-5-5-5-5-5-7-7-7-7-7-7-7-7------------------------------------------|


(Gtr 2)

e|--3-----------------------------------------------2------------------------|
B|--3---------------3---------------2---------------3-------2----------------|
G|--0---------------2---------------3---------------4-------2----------------|
D|--0---------------0---------------4---------------4-------2----------(x3)--|
A|----------------------------------4---------------2-------0----------------|
D|---------------------------------------------------------------------------|


e|--3------------------------------------------------------------------------|
B|--3---------------2--------------------------------------------------------|
G|--0---------------2--------------------------------------------------------|
D|--0---------------2--------------------------------------------------------|
A|------------------0--------------------------------------------------------|
D|---------------------------------------------------------------------------|


Brigde


(Gtr 1)

e|---------------------------------------------------------------------------|
B|------2h3---3-----2h3---3-----2h3------------------------------------------|
G|----2---------2-----------2--------4-4-4-4-4-4-4-4-4-4-4-4-4-4-4-4---------|
D|--0-------0-----0-----0-----0------4-4-4-4-4-4-4-4-4-4-4-4-4-4-4-4---(x2)--|
A|-----------------------------------2-2-2-2-2-2-2-2-2-2-2-2-2-2-2-2---------|
D|---------------------------------------------------------------------------|


(Gtr 2)

e|---------------------------------------------------------------------------|
B|---------------------------------------------------------------------------|
G|---------------------------------------------------------------------------|
D|---------------------------------------------------------------------------|
A|-----------------------------------9-9-9-9-9-9-9-9-9-9-9-9-9-9-9-9---(x2)--|
D|-----------------------------------9-9-9-9-9-9-9-9-9-9-9-9-9-9-9-9---------|


Solo


(Gtr 1)

e|---------------------------------------------------------------------------|
B|---------------------------------------------------------------------------|
G|---------------------------------------------------------------------------|
D|--------------------------------------------------4-4-4-4-2-2-2-2----(x2)--|
A|--5-5-5-5-5-5-5-5-0-0-0-0-0-0-0-0-4-4-4-4-4-4-4-4-2-2-2-2-0-0-0-0----------|
D|--5-5-5-5-5-5-5-5-0-0-0-0-0-0-0-0-4-4-4-4-4-4-4-4--------------------------|


(Gtr 2
)  x2

e|---------------------------------------------------------------------------|
B|---------------------------------------------------------------------------|
G|--19-19-19-18-18-19-19-19-19-19-19-18-18-19-18-14-15-15-15-15-15-----------|
D|---------------------------------------------------------------------------|
A|--17-17-17-16-16-17-17-17-17-17-17-16-16-17-16-12-13-13-13-13-13-----------|
D|---------------------------------------------------------------------------|


e|---------------------------------------------------------------------------|
B|--18-15-15-16-16-16-16-18-16-18-19-----------------------------------------|
G|---------------------------------------------------------------------------|
D|--17-13-13-14-14-14-14-16-14-16-17-----------------------------------------|
A|---------------------------------------------------------------------------|
D|---------------------------------------------------------------------------|


Interlude


(Gtr 1 and Gtr 2)

e|---------------------------------------------------------------------------|
B|---------------------------------------------------------------------------|
G|---------------------------------------------------------------------------|
D|---------------------------------------------------------------------------|
A|--5-5-5-5-5-5-5-5-0-0-0-0-0-0-0-0-7-7-7-7-7-7-7-7-0-0-0-0-0-0-0-0----(x2)--|
D|--5-5-5-5-5-5-5-5-0-0-0-0-0-0-0-0-7-7-7-7-7-7-7-7-0-0-0-0-0-0-0-0----------|


(Gtr 1a)

e|---------------------------------------------------------------------------|
B|---------------------------------------------------------------------------|
G|---------------------------------------------------------------------------|
D|--------------------------------------------------4-4-4-4-2-2-2-2----(x2)--|
A|--5-5-5-5-5-5-5-5-0-0-0-0-0-0-0-0-4-4-4-4-4-4-4-4-2-2-2-2-0-0-0-0----------|
D|--5-5-5-5-5-5-5-5-0-0-0-0-0-0-0-0-4-4-4-4-4-4-4-4--------------------------|


(Gtr 2a)

e|---------------------------------------------------------------------------|
B|---------------------------------------------------------------------------|
G|--19--19--19--19--19--19--19--19--19--19--19--19--19--19--19--19-----------|
D|---------------------------------------------------------------------(x2)--|
A|--17--17--17--17--17--17--17--17--17--17--17--17--17--17--17--17-----------|
D|---------------------------------------------------------------------------|


(Gtr 1b)

e|---------------------------------------------------------------------------|
B|---------------------------------------------------------------------------|
G|---------------------------------------------------------------------------|
D|------------------------------------------------------------(x2)-----------|
A|--5-5-5-5----0-0-0-0----4-4-4-4----9-9-9-9-7-7-7-7-------------------------|
D|--5-5-5-5----0-0-0-0----4-4-4-4----9-9-9-9-7-7-7-7-------------------------|


(Gtr 2b)

e|---------------------------------------------------------------------------|
B|----------2h3---3-----2h3---3-----2h3-----3--------------------------------|
G|--------2---------2-----------2---------2----------------------------------|
D|------0-------0-----0-----0-----0-----0---------------------(x2)-----------|
A|---------------------------------------------------------------------------|
D|---------------------------------------------------------------------------|


Outro


(Gtr 1)

e|---------------------------------------------------------------------------|
B|---------------------------------------------------------------------------|
G|---------------------------------------------------------------------------|
D|--------------------------------------------------(x3)---------------------|
A|--5-5-5-5-5-5-5-5-7-7-7-7-7-0-0-0------------------------------------------|
D|--5-5-5-5-5-5-5-5-7-7-7-7-7-0-0-0------------------------------------------|


e|---------------------------------------------------------------------------|
B|---------------------------------------------------------------------------|
G|---------------------------------------------------------------------------|
D|---------------------------------------------------------------------------|
A|--5-5-5-5-5-5-5-5-7-7-7-7-7-7-7-7------------------------------------------|
D|--5-5-5-5-5-5-5-5-7-7-7-7-7-7-7-7------------------------------------------|


(Gtr 2)

e|---------------------------------------------------------------------------|
B|---------------------------------------------------------------------------|
G|--19-19-19-19-19-19-19-----------------------------------------------------|
D|--------------------------------------------------(x3)---------------------|
A|--17-17-17-17-17-17-17-0-0-0-----------------------------------------------|
D|-----------------------0-0-0-----------------------------------------------|


e|---------------------------------------------------------------------------|
B|---------------------------------------------------------------------------|
G|--19-19-19-19-19-19-19-19--------------------------------------------------|
D|---------------------------------------------------------------------------|
A|--17-17-17-17-17-17-17-17--------------------------------------------------|
D|---------------------------------------------------------------------------|


(Gtr 1)

  PM...............................................................
e|---------------------------------------------------------------------------|
B|---------------------------------------------------------------------------|
G|---------------------------------------------------------------------------|
D|--7-7-7-7-7-7-7-7-7-7-7-7-7-7-7-7-4-4-4-4-4-4-4-4-4-4-4-4-4-4-4-4----------|
A|--5-5-5-5-5-5-5-5-5-5-5-5-5-5-5-5-2-2-2-2-2-2-2-2-2-2-2-2-2-2-2-2----------|
D|---------------------------------------------------------------------------|

  PM...............................................................
e|---------------------------------------------------------------------------|
B|---------------------------------------------------------------------------|
G|---------------------------------------------------------------------------|
D|--7-7-7-7-7-7-7-7-7-7-7-7-7-7-7-7-4-4-4-4-4-4-4-4-4-4-4-4-4-4-4-4----------|
A|--5-5-5-5-5-5-5-5-5-5-5-5-5-5-5-5-2-2-2-2-2-2-2-2-2-2-2-2-2-2-2-2----------|
D|------------------------------------------------------------------0--------|


(Gtr 2)

e|---------------------------------------------------------------------------|
B|--3--5/7--3--0--2--3-------------------------------------------------------|
G|---------------------------------------------------------------------------|
D|---------------------------------------------------------------------------|
A|---------------------------------------------------------------------------|
D|---------------------------------------------------------------------------|




Cмотрите также: аккорды к песне Whatsername