Добавьте AllTabs в закладки Ctrl+D

Are We the Waiting  табулатура

  Исполнитель: Green Day Прислал:
Are We the Waiting

Green Day


Are We The Waiting
Tabbed By: Hugo

    
Key: / or  - Slide up or down
       h    - Hammer


Intro

e|------------------------------------2-------------2------------------------|
B|--------2-------------2-----------3----3--------3----3---------------------|
G|------2----2--------2----2------2---------2---2---------2------------------|
D|----2---------2---2---------2-0-------------0------------------------------|
A|--0-------------0----------------------------------------------------------|
E|---------------------------------------------------------------------------|


Verse 1

e|------------------------------------2-------------2------------------------|
B|--------2-------------2-----------3----3--------3----3---------------------|
G|------2----2--------2----2------2---------2---2---------2------------------|
D|----2---------2---2---------2-0-------------0-------------------(x3)-------|
A|--0-------------0----------------------------------------------------------|
E|---------------------------------------------------------------------------|


e|---------------------------------------------------------------------------|
B|-----------12---------------9-------97--7-------------7-------------------|
G|--------11-----11---------9----9----97-----7--------7----7----------------|
D|-----11------------11---9---------9-97--------7---7---------7-------------|
A|--/9------------------7-------------75----------5-------------------------|
E|---------------------------------------------------------------------------|


Chorus

(Gtr 1)

e|------------------------------------2-------------2------------------------|
B|--------2-------------2-----------3----3--------3----3---------------------|
G|------2----2--------2----2------2---------2---2---------2------------------|
D|----2---------2---2---------2-0-------------0-------------------(x2)-------|
A|--0-------------0----------------------------------------------------------|
E|---------------------------------------------------------------------------|


(Gtr 2)

e|---------------------------------------------------------------------------|
B|--------------------------------------3------------------------------------|
G|---------2----------------------------2------------------------------------|
D|---------2----------------------------0-------------------------(x2)-------|
A|--16----0-----------------------------------------------------------------|
E|--16----------------------------------------------------------------------|


Verse 2

(Gtr 1)

e|------------------------------------2-------------2------------------------|
B|--------2-------------2-----------3----3--------3----3---------------------|
G|------2----2--------2----2------2---------2---2---------2------------------|
D|----2---------2---2---------2-0-------------0-------------------(x3)-------|
A|--0-------------0----------------------------------------------------------|
E|---------------------------------------------------------------------------|


e|---------------------------------------------------------------------------|
B|-----------12---------------9-------97--7-------------7-------------------|
G|--------11-----11---------9----9----97-----7--------7----7----------------|
D|-----11------------11---9---------9-97--------7---7---------7--(x2)-------|
A|--/9------------------7-------------75----------5-------------------------|
E|---------------------------------------------------------------------------|

(Gtr 2)

e|---------------------------------------------------------------------------|
B|------------------------------3-------------3------------------------------|
G|--2-------------2----------2--2-------------2----------7h9-7---------------|
D|--2-------------2----------2--0-------------0--------------0-----(x2)------|
A|--0-------------0----------0---------------------------7-------------------|
E|---------------------------------------------------------------------------|


e|---------------------------------------------------------------------------|
B|------------------------------3-------------3------------------------------|
G|--2-------------2----------2--2-------------2------------------------------|
D|--2-------------2----------2--0-------------0------------------------------|
A|--0-------------0----------0--------------------------------16------------|
E|------------------------------------------------------------16------------|


e|---------------------------------------------------------------------------|
B|------------------------------------3--------------------------------------|
G|------------------------------------2--------------------------------------|
D|--4-------------------2-------------0-----------------------------(x2)-----|
A|--4-------------------2----------------------------------------------------|
E|--2-------------------0----------------------------------------------------|


Chorus

(Gtr 1)

e|------------------------------------2-------------2------------------------|
B|--------2-------------2-----------3----3--------3----3---------------------|
G|------2----2--------2----2------2---------2---2---------2------------------|
D|----2---------2---2---------2-0-------------0-------------------(x5)-------|
A|--0-------------0----------------------------------------------------------|
E|---------------------------------------------------------------------------|


(Gtr 2)

e|---------------------------------------------------------------------------|
B|--------------------------------------3------------------------------------|
G|---------2----------------------------2------------------------------------|
D|---------2----------------------------0-------------------------(x5)-------|
A|--16----0-----------------------------------------------------------------|
E|--16----------------------------------------------------------------------|


e|---------------------------------------------------------------------------|
B|---------------------------------------------------------------------------|
G|---------------------------------------------------------------------------|
D|---------------------------------------------------------------------------|
A|--16----------------------------------------------------------------------|
E|--16----------------------------------------------------------------------|



www.greendayre.com



Cмотрите также: аккорды к песне Are We The Waiting