Добавьте AllTabs в закладки Ctrl+D

Worry Rock  бассовая партия

  Исполнитель: Green Day Прислал:
Worry Rock

Green Day


Green Day -> Worry Rock (Nimrod)

Fucked witohout a kiss again..................
G:------------------------------------------------------
D:-----------------------77777777-99999999--------------
A:77-00000000-777777777-9-------------------------------
E:------------------------------------------------------

yelling at brick wall.......
G:------------------------------------------------------------------------
D:---------------9------------------77777777-6--------777777777-999999999-
A:77777777----------------77777777-9----------77777777--------------------
E:--------7777777-55555555------------------------------------------------

A knocked down dragged out fight..... 
G:------------------------------------------------------------------------------
D:-----------------------------6-7-6--------------------------44444444-------9--
A:44-6-7-6------6-7-6--6-7-4-77-----9-7-6-44-6-7-6------6-7-6-------------------
E:--------9-7-44-9---55-9-------------------------9-7-44-9----22222222-777777-7-


Figured out by Luiz Manzano (Brasil)

Cмотрите также: табулатура к песне You Lied