Добавьте AllTabs в закладки Ctrl+D

No One Knows  бассовая партия

  Исполнитель: Green Day Прислал:
No One Knows

Green Day


No One Knows By Green Day (From The Album Kerplunk!)
Tabbed By: argonpoint
Tuning: Gb Db Ab Eb
Comments: Well, this is a great song overall. I never knew Mike Dirnt used to make
basslines like this(and he still probably can, if he wants to). The bassline is pretty much
repetition of the intro with slight differences. I think all the notes should be ringed 
so don't let your right hand touch the other strings when you play. Also playing
your fingers would be better than using a pick in this song since it'll sound more beautiful.
Intro:
G|-------12--------12------------------12------14--12-----12-----------------|
D|----12--------12-----12----------12-----12-----------12--------------------|
A|-14--------14------------14--13--------------------------------------------|
E|---------------------------------------------------------------------------|

G|---------11---------11---------------9-------9-----------------------------|
D|-----12---------12-----12--------12-------12----12-------------------------|
A|-12----------12-----------12--11------11------------11---------------------|
E|---------------------------------------------------------------------------|

G|---------9-----12s9--------------------------------------------------------|
D|-----12--------------11s12s11--11-9s11--9-7--------------------------------|
A|-10---------10------------------------------7--9---------------------------|
E|---------------------------------------------------------------------------|

G|---------12--------12------12--------14--------14-----14-------------------|
D|-----12---------12-----12------11h12----11h12-----12-----------------------|
A|-10---------10-------------------------------------------------------------|
E|---------------------------------------------------------------------------|

G|---------14--------14--------14-------14-----14----------------------------|
D|-----14--------14--------14--------14-----14-------------------------------|
A|-12---------12-------12---------12--------------14--12---------------------|
E|---------------------------------------------------------------------------|

G|---------12--------12------12--------14--------14-----14-------------------|
D|-----12---------12-----12------11h12----11h12-----12-----------------------|
A|-10---------10-------------------------------------------------------------|
E|---------------------------------------------------------------------------|

G|---------14--------14--------14-------14-----14----------------------------|
D|-----14--------14--------14--------14-----14-------------------------------|
A|-12---------12-------12---------12--------------14--12---------------------|
E|---------------------------------------------------------------------------|

G|---------12--------12------12--------14--------14--------------------------|
D|-----12---------12-----12------11h12----11h12-----12-----------------------|
A|-10---------10----------------------------------------0--------------------|
E|---------------------------------------------------------------------------|

G|---------12--------12------12--------14--------14--------------------------|
D|-----12---------12-----12------11h12----11h12-----12-----------------------|
A|-10---------10----------------------------------------0--------------------|
E|---------------------------------------------------------------------------|

G|---------12--------12------12--------14--------14--------------------------|
D|-----12---------12-----12------11h12----11h12-----12-----------------------|
A|-10---------10----------------------------------------0-12ring-------------|
E|---------------------------------------------------------------------------|

Verse1:
G|-------12--------12------------------12------14--12-----12-----------------|
D|----12--------12-----12----------12-----12-----------12--------------------|
A|-14--------14------------14--13--------------------------------------------|
E|---------------------------------------------------------------------------|

G|---------11---------11---------------9-------9-----------------------------|
D|-----12---------12-----12--------12-------12----12-------------------------|
A|-12----------12-----------12--11------11------------11---------------------|
E|---------------------------------------------------------------------------|

G|---------9--------9--------9-------9-------9-------------------------------|
D|-----12--------12-------12------12------12---------------------------------|
A|-10---------10------10-------10------10------10----------------------------|
E|---------------------------------------------------------------------------|

G|-------12--------12------------------12------14--12-----12-----------------|
D|----12--------12-----12----------12-----12-----------12--------------------|
A|-14--------14------------14--13--------------------------------------------|
E|---------------------------------------------------------------------------|

G|---------11---------11---------------9-------9-----------------------------|
D|-----12---------12-----12--------12-------12----12-------------------------|
A|-12----------12-----------12--11------11------------11---------------------|
E|---------------------------------------------------------------------------|

G|---------9--------9--------9-------9-------9-------------------------------|
D|-----12--------12-------12------12------12---------------------------------|
A|-10---------10------10-------10------10------10----------------------------|
E|---------------------------------------------------------------------------|

Chorus1:
G|---------12--------12------12--------14--------14-----14-------------------|
D|-----12---------12-----12------11h12----11h12-----12-----------------------|
A|-10---------10-------------------------------------------------------------|
E|---------------------------------------------------------------------------|

G|---------14--------14----------14------14----14----------------------------|
D|-----14--------14------14---------14------14-------------------------------|
A|-12---------12-------------12--------12---------14--12---------------------|
E|---------------------------------------------------------------------------|

G|---------12--------12------12--------14--------14-----14-------------------|
D|-----12---------12-----12------11h12----11h12-----12-----------------------|
A|-10---------10-------------------------------------------------------------|
E|---------------------------------------------------------------------------|

G|---------14--------14----------14------14----14----------------------------|
D|-----14--------14------14---------14------14-------------------------------|
A|-12---------12-------------12--------12---------14--12---------------------|
E|---------------------------------------------------------------------------|

G|---------12--------12------12--------14--------14--------------------------|
D|-----12---------12-----12------11h12----11h12-----12-----------------------|
A|-10---------10----------------------------------------0--------------------|
E|---------------------------------------------------------------------------|

G|---------12--------12------12--------14--------14--------------------------|
D|-----12---------12-----12------11h12----11h12-----12-----------------------|
A|-10---------10----------------------------------------0--------------------|
E|---------------------------------------------------------------------------|

G|---------12--------12------12--------14--------14--------------------------|
D|-----12---------12-----12------11h12----11h12-----12-----------------------|
A|-10---------10----------------------------------------0-12ring-------------|
E|---------------------------------------------------------------------------|

Verse2:
G|-------12--------12------------------12------14--12-----12-----------------|
D|----12--------12-----12----------12-----12-----------12--------------------|
A|-14--------14------------14--13--------------------------------------------|
E|---------------------------------------------------------------------------|

G|---------11---------11---------------9-------9-----------------------------|
D|-----12---------12-----12--------12-------12----12-------------------------|
A|-12----------12-----------12--11------11------------11---------------------|
E|---------------------------------------------------------------------------|

G|---------9--------9--------9-------9-------9-------------------------------|
D|-----12--------12-------12------12------12---------------------------------|
A|-10---------10------10-------10------10------10----------------------------|
E|---------------------------------------------------------------------------|

G|-------12--------12------------------12------14--12-----12-----------------|
D|----12--------12-----12----------12-----12-----------12--------------------|
A|-14--------14------------14--13--------------------------------------------|
E|---------------------------------------------------------------------------|

G|---------11---------11---------------9-------9-----------------------------|
D|-----12---------12-----12--------12-------12----12-------------------------|
A|-12----------12-----------12--11------11------------11---------------------|
E|---------------------------------------------------------------------------|

G|---------9-----12s9--------------------------------------------------------|
D|-----12--------------11s12s11--11-9s11--9-7--------------------------------|
A|-10---------10------------------------------7--9---------------------------|
E|---------------------------------------------------------------------------|

Chorus2:Same As Chorus1

Interlude:Same As Verse2

Chorus3:
G|---------12--------12------12--------14--------14-----14-------------------|
D|-----12---------12-----12------11h12----11h12-----12-----------------------|
A|-10---------10-------------------------------------------------------------|
E|---------------------------------------------------------------------------|

G|---------14--------14----------14------14----14----------------------------|
D|-----14--------14------14---------14------14-------------------------------|
A|-12---------12-------------12--------12---------14--12---------------------|
E|---------------------------------------------------------------------------|

G|---------12--------12------12--------14--------14-----14-------------------|
D|-----12---------12-----12------11h12----11h12-----12-----------------------|
A|-10---------10-------------------------------------------------------------|
E|---------------------------------------------------------------------------|

G|---------14--------14--------14-------14-----14----------------------------|
D|-----14--------14--------14--------14-----14-------------------------------|
A|-12---------12-------12---------12--------------14--12---------------------|
E|---------------------------------------------------------------------------|

G|---------12--------12------12--------14--------14--------------------------|
D|-----12---------12-----12------11h12----11h12-----12-----------------------|
A|-10---------10----------------------------------------0--------------------|
E|---------------------------------------------------------------------------|

G|---------12--------12------12--------14--------14--------------------------|
D|-----12---------12-----12------11h12----11h12-----12-----------------------|
A|-10---------10----------------------------------------0--------------------|
E|---------------------------------------------------------------------------|

G|---------12--------12------12--------14--------14--------------------------|
D|-----12---------12-----12------11h12----11h12-----12-----------------------|
A|-10---------10----------------------------------------0-12ring-------------|
E|---------------------------------------------------------------------------|

Ending:
G|-------12--------12--------------10-------10-------------------------------|
D|----12--------12-----12-------------10-------10-----12ring-----------------|
A|-14--------14------------14--12--------12-------12--12ring-----------------|
E|---------------------------------------------------------------------------|

Cмотрите также: табулатура к песне No Pride