Добавьте AllTabs в закладки Ctrl+D

Nice Guys Finish Last  бассовая партия

  Исполнитель: Green Day Прислал:
Nice Guys Finish Last

Green Day


Green Day -> Nice Guys Finish Last (Nimrod)

Intro
G:------------------------------------------------------------------------------
D:---------------6h7h6----------------------------------------------------------
A:-7777--------77-------------------------------7777--------777-6h7-77-6h7-777-7
E:5----5-7777-5-------5-77-4-5-4-2-0000-5-7777-5----5-7777-5------------------5-

Nice guys finished last you're running out............
G:------------------------------------------------------
D:------------------------------------------------------
A:7(32x)--------7(10x)-7(32x)-------7(8x)---------------
E:------0-7(16x)------5------0-7(16)--------------------

Pressuring cooker..........
G:------------------------------------------------------
D:------------------------------------------------------
A:--------7777-7777-7-5-4-------------------------------
E:5(10x)-7---------------7------------------------------

I never knew you were such a funny guy
G:------------------------------------------------------
D:------------------------------------------------------
A:-----------22222222---------------------------------
E:22222222-4-----------------------------------------

Nice guys finished last, when you're the outcast......
G:---------------------------------------------------------------
D:---------------------------------------------------------------
A:7777-5-4------7777-5-4------7777-5-4----------66-77-99-77-6-0-7
E:--------5555-7--------5555-7--------5555-77-99-----------------

Living on comand............
G:------------------------------------------------------
D:------------------------------------------------------
A:7(32x)--------7(10x)-7(32x)-----------------7777------
E:------0-7(16x)------5------0-77777777-5-0000----------

humm.............
G:--------------------------------------------------------------------------------------
D:---------------6h7h6-----------------------------------------------------------66-77-9
A:-7777--------77-------------------------------7777---------------------66-77-99-------
E:5----5-7777-5-------5-77-4-5-4-2-0000-5-7777-5----4-5555-4-2222-5-77-99---------------

Figured out by Luiz Manzano (Brasil)

Cмотрите также: табулатура к песне No One Knows