Добавьте AllTabs в закладки Ctrl+D

80  бассовая партия

  Исполнитель: Green Day Прислал:
80

Green Day


Verse

G----------------------------------------------------------------|
D----11---11--11-----9--9--9----9--9--9------7--7--7-------------|
A-9---9---9--9--7---7---7---7-6---6---6---6--5--5--5--5----------|
E----------------------------------------------------------------|

G----------------------------------------------------------------|
D-----------------3-2---------------4-3-----------3-2------------|
A-4-4-4-2-2-2-4-4-----3-2-2-2-2-4-4-----2-2-2-4-4-----2-2-2------|
E----------------------------------------------------------------|

Chorus

G------------------------------------------------------1-----0---|
D-------------2-2-2----------------------------------2--2-1-2-4--|
A-------4-4-4----------2-2-2-------4-------2--2-2-2-2-2----------|
E-2-2-2-------------------2-2-2---0-0-0--------------------------|

Bridge

G--------------------------------------|
D----------2-4---------4-2-------------|
A---2-2-2-2----4-4-4-4---------2-------| x1
E-2------------------------2-2---2-2-2-|

G--------------------------------------------------|
D--------2-4-----4-2-------------------------------|
A-2-2-2-2---4-4-4------------2-2-2-2-2-2-2-4-4-4-4-|
E--------------------2-2-2-2-----------------------|

Cмотрите также: табулатура к песне All By Myself