Добавьте AllTabs в закладки Ctrl+D

Tourniquet  табулатура

  Исполнитель: Evanescence Прислал:
Tourniquet

Evanescence


Main Riff    (0:20) x2
----------------------------------------------------------------------------------------------------|
----------------------------------------------------------------------------------------------------|
-----9/12----9/11----7-------9/12-----9/11----9-----9/12-----9/11----7---/12--11--------------------|
-----x-------x-------x-------x--------x-------x-----x--------x-------x---x----x---------------------|
-----7/10----7/9-----5-------7/11-----7/9-----7-----7/10-----7/9-----5---/10--9---/10\9-9h10p9------|
--00------00------00------00------00-------00----00-------00------00------------10-------------10---|
  xx      xx      xx      xx      xx       xx    xx       xx      xx

Intro Backing    (0:30) x1
-------------------------------------------|
-------------------------------------------|
--5*----4*--------5*-----------------------|
------4*--------4*--4*--5*-----------------| Plays throughout the song however with less
--------------------------5*---------------| distortion than at this point... and more quietly.
-------------------------------------------|

Verse 1        (0:58) "I'm Dying..." x2
-------------------------------------------------------|
-------------------------------------------------------|
-------------------------------------------------------|
--2222-22-2-22--22-2-2---2--2222--22-2----4-44---------|
--2222-22-2-22--22-2-2---2--3333--33-3----5-55----6-6v-|
--0000-00-0-00--00-0-0---0--3333--33-3----5-55---------|
  xxxx xx   xx  xx            xx  xx        xx

Main Riff    (1:16) "My God..." x2

Verse 1        (1:45) "Will you be on the other side..." x1

Verse 2        (1:54) "I'm Dying..." x2
--------------------------------------------------------------------|
--------------------------------------------------------------------|
--------------------------------------------------------------------|
--2222222-222-22-22-22-22--22-2--22-22-22-22-22--2-44-44-44---------|
--2222222-222-22-22-22-22--22-2--33-33-33-33-33--3-55-55-55----6-6--|v
--0000000-000-00-00-00-00--00-0--33-33-33-33-33--3-55-55-55---------|
   xxxx   xx  xx    xx     xx    xx    xx    xx    xx    xx

Main Riff    (2:13) x2 "My God..." x2

Interlude    (2:32) x1
-----------------------------------------|
-----------------------------------------|
-----------------------------------------|
-------------------10-----------------10-|
-------------------8------------------8--|
--000-00-0-00-000-----00-00-0-00-000-----|
  xxx xx x xx xxx     xx xx x xx xxx

--------------------------------------------------|
--------------------------------------------------|
--------------------------------------------------|
-------------------10------------/101010101010-9\-|
-------------------8-------------/8-8-8-8-8-8--7\-|
--00-00-0-00-000------00-00-0-00------------------|
  xx xx x xx xxx      xx xx x xx

---------------------------------------------------------------------------------|
---------------------------------------------------------------------------------|
---------------------------------------------------------------------------------|
------------------10-----------------10----------------10------/101010101010-9\--| < "I want to die!"
------------------8------------------8-----------------8-------/8-8-8-8-8-8--7\--|
--000-00-0-00-000----00-00-0-00-000----00-00-0-00-000----------------------------|
  xxx xx x xx xxx    xx xx x xx xxx    xx xx x xx xxx


Evanescence - Аккорды к песням