Добавьте AllTabs в закладки Ctrl+D

Going Under  табулатура

  Исполнитель: Evanescence Прислал:
Going Under

Evanescence


Intro/Verses: x6

e|-------------|
b|-------------|
G|-------------|
D|--22-22-2-2--|
A|--22-22-2-2--|
E|--00-00-0-0--|

Pre-Chorus:

e|--xx-xx-x-x--|
b|--xx-xx-x-x--|
G|--xx-xx-x-x--|
D|--xx-xx-x-x--|
A|--xx-xx-x-x--|
E|--xx-xx-x-x--|

*"I... Dive... Again" Part

Chorus:                          x5

e|--------------------------------|
b|--------------------------------|
G|-------x-55-5-------------------|
D|--22-2-x-55-5-x-55-5------------|
A|--22-2-x-33-3-x-55-5-x-55-5-xx--|
E|--00-0--------x-33-3-x-22-2-xx--|

Pre-Verses:

e|-------------|
b|-------------|
G|-------------|
D|--22-22-2-2--|
A|--22-22-2-2--|
E|--00-00-0-0--|

Verses x6
Pre-Chorus
Chorus x5

Interlude:               x2

e|------------------------|
b|------------------------|
G|------------------------|
D|--555555-444444-222222--|
A|--555555-444444-222222--|
E|--333333-222222-000000--|


Cмотрите также: табулатура к песне Taking Over Me