Добавьте AllTabs в закладки Ctrl+D

It Wont Be Long  бассовая партия

  Исполнитель: Beatles Прислал:
It Wont Be Long

Beatles


It Won't Be Long
The Beatles
Written by John Lennon and Paul McCartney; released on With The Beatles 
album

A great one again, I love that riff in it :-)

Refrain:
G|------- ------- ------- -------|------- ------- ------- -------|
D|-------------------------------|-------------------------------|
A|-------------------------------|-------------------------------|
E|-------------------------------|-------------------------------|
                                                      It won't be


G|------- ------- ------- -------|------- ------- ------- -------|
D|-------------------------------|-------------------------------|
A|-------------------------------|-------------------------------|
E|9-------9---9---9-------9---9--|9-------9---9---9-----------7--|
  long,   yeah,           yeah,           yeah,       It won't be
                  yeah            yeah            yeah

G|------- ------- ------- -------|------- ------- ------- -------|
D|-------------------------------|-------------------------------|
A|7-------7---7---7-------7---7--|7-------7---7---7-------7---7--|
E|-------------------------------|-------------------------------|
  long,   yeah,           yeah,           yeah,       It won't be
                  yeah            yeah            yeah

G|------- ------- ------- -------|------- ------- ------- -------|
D|-------------------------------|-------------------------------|
A|4-------4---4---4-------4---4--|-------------------------------|
E|-------------------------------|5-------5-------5-----------7--|
  long,   yeah,              till I           be- long        to
                  yeah            Aaaaaaaaaaaaaaaaaaaaaaaaaaaaaaa

G|------- ------- ------- -------|------- ------- ------- -------|
D|-------------------------------|-------------------------------|
A|7-----------7------------------|7-----------7---4--------------|
E|----------------7--------------|--------------------7---3-/-4--|
  you

Verse:
G|------- ------- ------- -------|------- ------- ------- -------|
D|-------------------------------|-------------------------------|
A|----------------------------7--|-------------------------------|
E|0-----------0---7--------------|8-----------8---8--------------|
          Every   night,     when eve  -  ry  bo  -   dy  has


G|------- ------- ------- -------|------- ------- ------- -------|
D|-------------------------------|-------------------------------|
A|7-----------7------------------|7-----------7-----------7------|
E|----------------7-----------7--|----------------7--------------|
  fun,                                    Here am I,


G|------- ------- ------- -------|------- ------- ------- -------|
D|-------------------------------|-------------------------------|
A|-------------------------------|7-----------7------------------|
E|8-----------8---8-------8---7--|----------------7-----------7--|
  sit     ting all    on  my      own


G|------- ------- ------- -------|
D|-------------------------------|
A|7---7---7---7---7--------------|
E|--------------------7---4---7--|
                      It won't be

Refrain:
G|------- ------- ------- -------|------- ------- ------- -------|
D|-------------------------------|-------------------------------|
A|4-------4---4---4--------------|4---------------4-------4---2--|
E|-------------------------------|-------------------------------|
  long,   yeah,           yeah,           yeah,       It won't be
                  yeah            yeah            yeah

G|------- ------- ------- -------|------- ------- ------- -------|
D|2-------2---2---2-------2---2--|2-------2---2---2-------2---2--|
A|-------------------------------|-------------------------------|
E|-------------------------------|-------------------------------|
  long,   yeah,           yeah,           yeah,       It won't be
                  yeah            yeah            yeah

G|------- ------- ------- -------|------- ------- ------- -------|
D|-------------------------------|-------------------------------|
A|2-/-4---4---4---4-------4---4--|-------------------------------|
E|-------------------------------|5-------5-------5-----------7--|
  long,   yeah,              till I           be- long        to
                  yeah            Aaaaaaaaaaaaaaaaaaaaaaaaaaaaaaa

G|------- ------- ------- -------|------- ------- ------- -------|
D|-------------------------------|-------------------------------|
A|7-----------7------------------|7-------7---6---4--------------|
E|----------------7--------------|--------------------7---3-/-4--|
  you                                                    Since you

Bridge:
G|------- ------- ------- -------|------- ------- ------- -------|
D|-------------------------------|-------------------------------|
A|------------7-----------7------|6-----------6---6-------6------|
E|0---------------7--------------|-------------------------------|
  left    me,                     I'm so  a - lone,   now     you're
                  you             left    me  here,   now

G|------- ------- ------- -------|------- ------- ------- -------|
D|-------------------------------|-------------------------------|
A|5---------------5--------------|4-----------4---4-----------4--|
E|-------------------------------|-------------------------------|
  co- ming,                you're coming  on  home
  you're                          now     you're co - ming on

G|------- ------- ------- -------|------- ------- ------- -------|
D|-------------------------------|-------------------------------|
A|-------------------------------|-------------------------------|
E|5---------------5--------------|7-----------7---7-------7------|
  I'll    be      good    like I  know I      should, you're coming
  home                            know I      should  you come

G|------- ------- ------- -------|------- ------- ------- -------|
D|-------------------------------|9------------------------------|
A|9---9---9---9---9---9---9---9--|-------------------------------|
E|-------------------------------|7------------------------------|
  home,           you're co- ming home!
  aaaaaaaaaaaaaaaaaaaaaaaaaaaaaaaaaaaaaaaaaaaaaaaa
Verse:
G|------- ------- ------- -------|------- ------- ------- -------|
D|-------------------------------|-------------------------------|
A|7-----------7---------------7--|-------------------------------|
E|----------------7--------------|8-----------8---8-----------7--|
          Every   night       the tears   come now   from my


G|------- ------- ------- -------|------- ------- ------- -------|
D|-------------------------------|-------------------------------|
A|7-----------7------------------|7-----------7---------------7--|
E|----------------7-----------7--|----------------7--------------|
  eyes,                                   Every   day


G|------- ------- ------- -------|------- ------- ------- -------|
D|-------------------------------|-------------------------------|
A|-------------------------------|7-----------7-------7---7---7--|
E|8-----------8---8-----------7--|----------------7--------------|
  I've    done no     thing but   cried


G|------- ------- ------- -------|
D|-------------------------------|
A|7---7---7---7---7--------------|
E|--------------------7---4---7--|
                      It won't be

Refrain:
G|------- ------- ------- -------|------- ------- ------- -------|
D|-------------------------------|-------------------------------|
A|4-------4---4---4-------4---4--|4-------4---4---4-----------2--|
E|-------------------------------|-------------------------------|
  long,   yeah,           yeah,           yeah,       It won't be
                  yeah            yeah            yeah

G|------- ------- ------- -------|------- ------- ------- -------|
D|2-------2---2---2-------2---2--|2-------2---2---2-------2---2--|
A|-------------------------------|-------------------------------|
E|-------------------------------|-------------------------------|
  long,   yeah,           yeah,           yeah,       It won't be
                  yeah            yeah            yeah

G|------- ------- ------- -------|------- ------- ------- -------|
D|-------------------------------|-------------------------------|
A|2-/-4---4---4---4-------4---4--|-------------------------------|
E|-------------------------------|5-------5-------5-----------7--|
  long,   yeah,              till I           be- long        to
                  yeah            Aaaaaaaaaaaaaaaaaaaaaaaaaaaaaaa

G|------- ------- ------- -------|------- ------- ------- -------|
D|-------------------------------|-------------------------------|
A|7-----------7---------------7--|7-------7---6---4--------------|
E|----------------7-------7------|--------------------7---3-/-4--|
  you                                                    Since you

Bridge:
G|------- ------- ------- -------|------- ------- ------- -------|
D|-------------------------------|-------------------------------|
A|----------------------------7--|6-----------6---6-----------6--|
E|0---------------7--------------|-------------------------------|
  left    me,                     I'm so  a - lone,   now     you're
                  you             left    me  here,   now

G|------- ------- ------- -------|------- ------- ------- -------|
D|-------------------------------|-------------------------------|
A|5---------------5-----------5--|4-----------4---4-----------4--|
E|-------------------------------|-------------------------------|
  co- ming,                you're coming  on  home
  you're                          now     you're co - ming on

G|------- ------- ------- -------|------- ------- ------- -------|
D|-------------------------------|-------------------------------|
A|-------------------------------|-------------------------------|
E|5-----------5---5--------------|7-----------7---7-------7------|
  I'll    be      good    like I  know I      should, you're coming
  home                            know I      should  you come

G|------- ------- ------- -------|------- ------- ------- -------|
D|-------------------------------|9------------------------------|
A|9---9---9---9---9---9---9---9--|-------------------------------|
E|-------------------------------|7------------------------------|
  home,           you're co- ming home!                   So,
  aaaaaaaaaaaaaaaaaaaaaaaaaaaaaaaaaaaaaaaaaaaaaaaa
Verse:
G|------- ------- ------- -------|------- ------- ------- -------|
D|-------------------------------|-------------------------------|
A|7-----------7---------------7--|-------------------------------|
E|----------------7--------------|8-----------8---8-----------7--|
          every   day             will    be  hap -  py,  I


G|------- ------- ------- -------|------- ------- ------- -------|
D|-------------------------------|-------------------------------|
A|7-----------7------------------|7---------------------------7--|
E|----------------7-----------7--|----------------7--------------|
  know,                                   Now I   know        that


G|------- ------- ------- -------|------- ------- ------- -------|
D|-------------------------------|-------------------------------|
A|-------------------------------|7-----------7------------------|
E|8-----------8---8-----------8--|----------------7-----------7--|
  you     won't leave me  no      more


G|------- ------- ------- -------|
D|-------------------------------|
A|7---5---7---5---7--------------|
E|--------------------7---4---7--|
                      It won't be

Refrain:
G|------- ------- ------- -------|------- ------- ------- -------|
D|-------------------------------|-------------------------------|
A|4-------4---4---4-------4---4--|4-------4---4---4-------4---2--|
E|-------------------------------|-------------------------------|
  long,   yeah,           yeah,           yeah,       It won't be
                  yeah            yeah            yeah

G|------- ------- ------- -------|------- ------- ------- -------|
D|2-------2---2---2-------2---2--|2-------2---2---2---2---2---2--|
A|-------------------------------|-------------------------------|
E|-------------------------------|-------------------------------|
  long,                   yeah,           yeah,       It won't be
                  yeah            yeah            yeah

G|------- ------- ------- -------|
D|-------------------------------|
A|2-/-4---4---4---4-------4---4--|
E|-------------------------------|
  long,   yeah,              till
                  yeah

G|-------------------------------------------------------|
D|7------------------------------------------------------|
A|-------------------------------------------------------|
E|5------------------------------------------------------|
  I            be  -  long                  to


G|-----------------------------------------------------------------|
D|------------------5-----------------4-----------------3----------|
A|-----------------------------------------------------------------|
E|-----------------------------------------------------------------|
  you


G|------- ------- ------- -------|------- ------- ------- -------|
D|2------------------------------|-------------------------------|
A|-------------------------------|-------------------------------|
E|-------------------------------|-------------------------------|

Please e-mail me for any corrections.

Cмотрите также: табулатура к песне Its Only Love