Добавьте AllTabs в закладки Ctrl+D

Hey Jude  бассовая партия

  Исполнитель: Beatles Прислал:
Hey Jude

Beatles


The Beatles                         /OR-SLIDE UP OR DOWN
Hey Jude                            E-EIGHT NOTE
tabbed by saturns_bassman           .-DOTTED QUARTER NOTE
                                    %-EIGHT REST
come in on bridge:                  REST-HOLD ONE COUNT
                                    *-HOLD FOR FOUR COUNTS
g|--------|--------|--------|---------|--------------|---------|--------|
d|--------|--------|--------|---------|--------------|---------|--------|
a|--------|--------|----3-3-|---------|--------------|---------|--------|
e|6-6-5-5|3-31-1-|0-3-----|11111111-|1111-11-1-1/6-|66-6-5-5-|3-3-1-1-|
     E     E    E                                             (next line)
g|--------|----------------|---------|----|
d|--------|----------------|---------|----|
a|-----3--|----------------|33333333-|----|
e|0.-3--3-|1--1-1-1-111111-|---------|-8*-|

3rd and 4th verses:
               E         E           E                 E  E           E
g|--------|--------R|------------|---------|----|-----|---------|---------|
d|--------|--------E|----25----2-|-3.----3-|----|-3---|---------|-------3-|
a|--------|3%----3-S|3.-----35---|---0-3---|-1*-|--13-|---0-3---|-3.--03--|
e|1-1-1-1-|----3---T|------------|---------|----|-----|11-----1-|---------|
  E   E                                             (next line)
g|---------------|---------|
d|---------------|---------|
a|---------------|---------|
e|11--1-11-1-0h1-|11111135-|

-play bridge
-play verse
-then play chorus till end(below)

outro chorus:
                PLAY 18 TIMES AND FADE OUT
g|-----------|---------|----------|----------|
d|-----------|---------|----------|----------|
a|/88888888-|66666666-|----------|----------|
e|-----------|---------|66666665-|1111111/8-|






Cмотрите также: аккорды к песне Hey Jude Acoustic