Добавьте AllTabs в закладки Ctrl+D

Baby Its You Solo  табулатура

  Исполнитель: Beatles Прислал:
Baby Its You Solo

Beatles


Author/Artist: The Beatles (David/Williams/Bacharach)
Title: Baby it's you
Album: Live at the BBC
Transcribed by: Guillermo Blanco
Email: osollegui@hotmail.com

||--------------------------------------------------------------------------|
||--------------------------------------------------------------------------|
||--------------------------------------------------------------------------|
||--------------------------------------------------------------------------|
||--------------3-2-------2-3-2---2-----------------3-2-------3-2---2---2-5-|
||-3-5-3-2-0--3-----5-3-5-------5------3-5-3-2-0--3-----5-3-5-----5---3-----|


||---------------||----------------------------------||
||---------------||----------------------------------||
||----4-7--4---4-||----------------------------------||
||--5--------7---||----------------------------------||
||---------------||--------------3-2-------2-3-2---2-||
||---------------||-3-5-3-2-0--3-----5-3-5-------5---||

Cмотрите также: басс табулатура к песне Baby You Can Drive My Car