Добавьте AllTabs в закладки Ctrl+D

Im In Love Again  табулатура

  Исполнитель: Animals Прислал:
Im In Love Again

Animals


a composite of different jimmy reed songs


        I'M IN LOVE AGAIN by The Animals

|----------------------------------------------|
|----------------------------------------------|
|----------------------------------------------|
|----------------------------------------------|
|-----2-----4-----5----4------2----4----5----4-|
|--0-----0-----0----0------0----0----0----0----|repeat until singing starts


----early---------in----the---morning
|----------------------------------------------|
|----------------------------------------------|
|----------------------------------------------|
|----------------------------------------------|
|-----2-----4-----5----4------2----4----5----4-|
|--0-----0-----0----0------0----0----0----0----|

----sitting-here----all-alone
|----------------------------------------------|
|----------------------------------------------|
|----------------------------------------------|
|----------------------------------------------|
|-----2-----4-----5----4------2----4----5----4-|
|--0-----0-----0----0------0----0----0----0----|

----waiting------------for-my-baby
|----------------------------------------------|
|----------------------------------------------|
|----------------------------------------------|
|-----2-----4-----5----4------2----4----5----4-|
|--0-----0-----0----0------0----0----0----0----|
|----------------------------------------------|

----to-call-me-on-the-telephone
|----------------------------------------------|
|----------------------------------------------|
|----------------------------------------------|
|----------------------------------------------|
|-----2-----4-----5----4------2----4----5----4-|
|--0-----0-----0----0------0----0----0----0----|

----im-in-love---------------i'm-in--love
|-------------------------------------------------------|
|-------------------------------------------------------|
|-------------------------------------------------------|
|----------------4--4--6--6----------------2--2---4--4--|
|---2--2---6--6--------------0--0---4--4----------------|
|-------------------------------------------------------|

----feels---good-all-the------time
|---------------------------------------------|
|---------------------------------------------|
|---------------------------------------------|
|---------------------------------------------|
|-----2-----4-----5----4------2---0-1--2~~~~~-|
|--0-----0-----0----0------0------------------|


and you just repeat this with the other verses.

-Bert

Cмотрите также: табулатура к песне Its My Life Intro