Добавьте AllTabs в закладки Ctrl+D

You Like Me Too Much  бассовая партия

  Исполнитель: Beatles Прислал:
You Like Me Too Much

Beatles


You Like Me Too Much
The Beatles
Written by George Harrison; released on Help! album.

Good song, I like the solo where the piano answers to the guitar :-)

Intro:
G|------ ------ ------ ------|------ ------ ------ ------|
D|---------------------------|---------------------------|
A|---------------------------|---------------------------|
E|---------------------------|---------------------------|



G|------ ------ ------ ------|------ ------ ------ ------|
D|---------------------------|---------------------------|
A|---------------------------|---------------------------|
E|---------------------------|---------------------------|



G|---------------------------------------------|
D|---------------------------------------------|
A|---------------------------------------------|
E|---------------------------------------------|
                                  Though you've

Verse:
G|------ ------ ------ ------|------ ------ ------ ------|
D|7--------------------------|7--------------------------|
A|--------------7------------|--------------7------5-----|
E|---------------------------|---------------------------|
  gone   a - way    this   mor -  ning,  you'll be     back


G|------ ------ ------ ------|------ ------ ------ ------|
D|---------------------------|5--------------------5-----|
A|3--------------------3-----|--------------5------------|
E|--------------3------------|---------------------------|
      a  -   gain      tonight,             Telling    me


G|------ ------ ------ ------|------ ------ ------ ------|
D|7----------7---------------|7--------------------------|
A|--------------7------------|--------------7------5-----|
E|---------------------------|---------------------------|
         there'll be no    next   time   if     I      just


G|------ ------ ------ ------|------ ------ ------ ------|
D|---------------------------|5--------------------5-----|
A|3----------3---------3-----|--------------5------------|
E|--------------3------------|---------------------------|
     don't      treat  you right                   You'll


G|------ ------ ------ ------|------ ------ ------ ------|
D|---------------------------|---------------------------|
A|2--------------------------|2--------------------2---/-|
E|--------------2------------|--------------2------------|
  ne- ver    leave  me,    and       you know      it's


G|------ ------ ------ ------|------ ------ ------ ------|
D|---------------------------|---------------------4-----|
A|5--------------------------|5-------------7------------|
E|--------------5------------|---------------------------|
  true,                                     Cause  you


G|------ ------ ------ ------|------ ------ ------ ------|
D|5--------------------------|---------------------------|
A|--------------5------------|3----------3---------------|
E|---------------------------|--------------3------------|
  like       me     too    much      and I      like   you


G|------ ------ ------ ------|------ ------ ------ ------|
D|---------------------------|---------------------------|
A|5--------------------------|5----------5---------5-----|
E|--------------5------------|--------------5------------|
                                                   You've

Verse:
G|------ ------ ------ ------|------ ------ ------ ------|
D|7--------------------------|7--------------------------|
A|--------------7------------|--------------7------5-----|
E|---------------------------|---------------------------|
  tried  be- fore   to     leave  me,    but    you


G|------ ------ ------ ------|------ ------ ------ ------|
D|---------------------------|5--------------------------|
A|3--------------------3-----|--------------5------------|
E|--------------3------------|---------------------------|
  hadn't     got       the nerve            To  walk   out


G|------ ------ ------ ------|------ ------ ------ ------|
D|7--------------------------|7--------------------------|
A|--------------7------------|--------------7------5-----|
E|---------------------------|---------------------------|
         and    make me    lone - ly     which  is     all


G|------ ------ ------ ------|------ ------ ------ ------|
D|---------------------------|5--------------------------|
A|3--------------------3-----|--------------5------------|
E|--------------3------------|---------------------------|
     that    I      de  -  serve                   You'll


G|------ ------ ------ ------|------ ------ ------ ------|
D|---------------------------|---------------------------|
A|2--------------------------|2--------------------------|
E|--------------2------------|--------------2------------|
  ne- ver    leave  me,    and       you know      it's


G|------ ------ ------ ------|------ ------ ------ ------|
D|---------------------------|---------------------------|
A|5--------------------------|5----------5---------5-----|
E|--------------5------------|--------------5------------|
  true,                                     Cause  you


G|------ ------ ------ ------|------ ------ ------ ------|
D|5--------------------------|---------------------------|
A|--------------5------------|3----------3---------3-----|
E|---------------------------|--------------3------------|
  like       me     too    much      and I      like   you


G|------ ------ ------ ------|------ ------ ------ ------|
D|---------------------------|---------------------------|
A|5----------5---------------|5----------5---------5-----|
E|--------------5------------|--------------5------------|


Bridge:
G|------ ------ ------ ------|------ ------ ------ ------|
D|---------------------------|---------------------------|
A|7--------------------------|7--------------------7-----|
E|--------------7------------|--------------7------------|
  I                           real    -     ly         do,


G|------ ------ ------ ------|------ ------ ------ ------|
D|7--------------------------|7--------------------7-----|
A|--------------7------------|--------------7------------|
E|---------------------------|---------------------------|
                                            And it's   nice


G|------ ------ ------ ------|------ ------ ------ ------|
D|---------------------------|7--------------------------|
A|--------------9------------|--------------7------------|
E|7----------7---------------|---------------------------|
         when   you    be- lieve  me,


G|------ ------ ------ ------|------ ------ ------ ------|
D|--------------7------------|7--------------------------|
A|7--------------------------|--------------5------------|
E|---------------------------|---------------------------|
  if         you              leave      me,

Verse:
G|------ ------ ------ ------|------ ------ ------ ------|
D|7----------7---------7-----|7----------7---------------|
A|--------------7------------|--------------7------5-----|
E|---------------------------|---------------------------|
  I      will   follow     you,   and    bring  you    back


G|------ ------ ------ ------|------ ------ ------ ------|
D|---------------------------|5--------------------------|
A|3--------------------------|--------------5------------|
E|--------------3------------|---------------------------|
         where  you    be- long,            Cause I    couldn't


G|------ ------ ------ ------|------ ------ ------ ------|
D|7----------7---------------|7----------7---------------|
A|--------------7------------|--------------7------5-----|
E|---------------------------|---------------------------|
             real - ly     stand  it,       I   ad  -  mit


G|------ ------ ------ ------|------ ------ ------ ------|
D|---------------------------|5--------------------5-----|
A|3----------3---------------|--------------5------------|
E|--------------3------------|---------------------------|
         that   I   was    wrong                   I


G|------ ------ ------ ------|------ ------ ------ ------|
D|---------------------------|---------------------------|
A|2----------2---------------|2----------2---------2-----|
E|--------------2------------|--------------2------------|
  wouldn't   let    you    leave  me,       cause  it's


G|------ ------ ------ ------|------ ------ ------ ------|
D|---------------------------|---------------------4-----|
A|5----------5---------------|5----------5--7------------|
E|--------------5------------|---------------------------|
  true,                                     Cause  you


G|------ ------ ------ ------|------ ------ ------ ------|
D|5--------------------5-----|---------------------------|
A|--------------5------------|3--------------------3-----|
E|---------------------------|--------------3------------|
  like       me     too    much      and I      like   you


G|------ ------ ------ ------|------ ------ ------ ------|
D|---------------------------|---------------------------|
A|5--------------------------|5--------------------5-----|
E|--------------5------------|--------------5------------|


Break (half-solo):
G|------ ------ ------ ------|------ ------ ------ ------|
D|---------------------------|---------------------------|
A|--------------5------------|--------------5------------|
E|3----------3---------------|3----------3---------------|



G|------ ------ ------ ------|------ ------ ------ ------|
D|---------------------------|---------------------------|
A|--------------5------------|--------------0------2-----|
E|3----------3---------------|3----------3---------------|



G|------ ------ ------ ------|------ ------ ------ ------|
D|---------------------------|---------------------------|
A|3----------3---------------|3----------3---------3-----|
E|--------------3------------|--------------3------------|



G|------ ------ ------ ------|------ ------ ------ ------|
D|---------------------------|---------------------------|
A|--------------5------------|--------------5------------|
E|3----------3---------------|3----------3---------------|



G|------ ------ ------ ------|------ ------ ------ ------|
D|---------------------------|---------------------------|
A|5----------5---------------|5----------5---------------|
E|--------------5------------|--------------5------------|



G|------ ------ ------ ------|------ ------ ------ ------|
D|---------------------------|---------------------------|
A|5----------5---------------|5----------5--3------3-----|
E|--------------5------------|---------------------------|
                                            Cause  you


G|------ ------ ------ ------|------ ------ ------ ------|
D|---------------------------|---------------------------|
A|--------------5------------|3----------3---------3-----|
E|3--------------------------|--------------3------------|
  like       me     too    much      and I      like   you


G|------ ------ ------ ------|------ ------ ------ ------|
D|---------------------------|---------------------------|
A|5----------5---------------|5----------5---------5-----|
E|--------------5------------|--------------5------------|


Bridge:
G|------ ------ ------ ------|------ ------ ------ ------|
D|---------------------------|---------------------------|
A|7------------------------5-|7------7-------------7-----|
E|--------------7------7-----|--------------7------------|
  I                           real    -     ly         do,


G|------ ------ ------ ------|------ ------ ------ ------|
D|7--------------------5-----|7--------------------7-----|
A|--------------7------------|--------------7------------|
E|---------------------------|---------------------------|
                                            And it's   nice


G|------ ------ ------ ------|------ ------ ------ ------|
D|9----------9---------9-----|7----------7---------------|
A|--------------9------------|--------------7------------|
E|---------------------------|---------------------------|
         when   you    be- lieve  me,


G|------ ------ ------ ------|------ ------ ------ ------|
D|--------------7------------|7--------------------------|
A|7--------------------------|--------------5------------|
E|---------------------------|---------------------------|
  if         you              leave      me,

Verse:
G|------ ------ ------ ------|------ ------ ------ ------|
D|7----------7---------------|7----------7---------------|
A|--------------7------------|--------------7------5-----|
E|---------------------------|---------------------------|
  I      will   follow     you,   and    bring  you    back


G|------ ------ ------ ------|------ ------ ------ ------|
D|---------------------------|5----------5---------------|
A|3--------------------3-----|--------------5------------|
E|--------------3------------|---------------------------|
         where  you    be- long,            Cause I    couldn't


G|------ ------ ------ ------|------ ------ ------ ------|
D|7--------------------------|7--------------------------|
A|--------------7------------|--------------7------5-----|
E|---------------------------|---------------------------|
             real - ly     stand  it,       I   ad  -  mit


G|------ ------ ------ ------|------ ------ ------ ------|
D|---------------------------|5--------------------------|
A|3--------------------3-----|--------------5------------|
E|--------------3------------|---------------------------|
         that   I   was    wrong                   I


G|------ ------ ------ ------|------ ------ ------ ------|
D|---------------------------|---------------------------|
A|2--------------------------|2--------------------------|
E|--------------2------------|--------------2------------|
  wouldn't   let    you    leave  me,       cause  it's


G|------ ------ ------ ------|------ ------ ------ ------|
D|---------------------------|---------------------4-----|
A|5--------------------------|5-------------7------------|
E|--------------5------------|---------------------------|
  true,                                     Cause  you


G|------ ------ ------ ------|------ ------ ------ ------|
D|5--------------------5-----|--------------5------------|
A|--------------5------------|3--------------------3-----|
E|---------------------------|---------------------------|
  like       me     too    much      and I      like   you


G|------ ------ ------ ------|------ ------ ------ ------|
D|---------------------------|---------------------4-----|
A|5--------------------------|5-------------7------------|
E|--------------5------------|---------------------------|
                                            Cause  you

Outro:
G|------ ------ ------ ------|------ ------ ------ ------|
D|5--------------------------|---------------------------|
A|--------------5------------|3--------------------3-----|
E|---------------------------|--------------3------------|
  like       me     too    much      and I      like   you


G|------ ------ ------ ------|------ ------ ------ ------|
D|---------------------------|---------------------4-----|
A|5--------------------------|5------5------7------------|
E|--------------5------------|---------------------------|



G|------ ------ ------ ------|------ ------ ------ ------|
D|5--------------------------|5--------------------5-----|
A|--------------5------------|--------------5------------|
E|---------------------------|---------------------------|



G|3----- ------ ------ ------|------ ------ ------ ------|
D|--------------3------------|--------------7------------|
A|---------------------------|5--------------------------|
E|---------------------------|---------------------------|



G|------ ------ ------ ------|------ ------ ------ ------|
D|5--------------------------|---------------------------|
A|---------------------------|---------------------------|
E|---------------------------|---------------------------|


Please e-mail me for any corrections, or write a comment.

Cмотрите также: табулатура к песне You Never Give Me