Добавьте AllTabs в закладки Ctrl+D

The Night Before  бассовая партия

  Исполнитель: Beatles Прислал:
The Night Before

Beatles


The Night Before
The Beatles
Written by John Lennon and Paul McCartney; released on Help! album

Nice song.

Intro:
G|------- ------- ------- -------|------- ------- ------- -------|
D|-------------------------------|-------------------------------|
A|-------------------------------|----------------------------4-h|
E|-------------------------------|-------------------------------|



G|------- ------- ------- -------|------- ------- ------- -------|
D|-------------------------------|-------------------------------|
A|5---------------------------4-h|5-----------5---------------7-h|
E|----------------5--------------|----------------5--------------|



G|------- ------- ------- -------|------- ------- ------- -------|
D|-------------------------------|----------------------------4-h|
A|8-----------8---------------7-h|8-----------8------------------|
E|----------------8--------------|----------------8--------------|



G|------- ------- ------- -------|------- ------- ------- -------|
D|5-----------5---------------4-h|5-----------5---------------6-h|
A|----------------5--------------|----------------5--------------|
E|-------------------------------|-------------------------------|



G|------- ------- ------- -------|------- ------- ------- -------|
D|7-----------7---------------6-h|7-----------7------------------|
A|----------------7--------------|----------------7--------------|
E|-------------------------------|-------------------------------|


Verse:
G|------- ------- ------- -------|------- ------- ------- -------|
D|-------------------------------|-------------------------------|
A|5-----------5------------------|3-----------3------------------|
E|----------------5--------------|----------------3--------------|
  We      said our        good -  byes,


G|------- ------- ------- -------|------- ------- ------- -------|
D|-------------------------------|-------------------------------|
A|----------------5--------------|----------------7--------------|
E|3-----------3------------------|5-----------5------------------|

  aah,                    the     night   be- fore

G|------- ------- ------- -------|------- ------- ------- -------|
D|-------------------------------|-------------------------------|
A|5------------------------------|3-----------3------------------|
E|----------------5--------------|----------------3--------------|
  Love    was in          your    eyes


G|------- ------- ------- -------|------- ------- ------- -------|
D|-------------------------------|-------------------------------|
A|----------------5--------------|----------------7--------------|
E|3-----------3------------------|5-----------5------------------|

  aah,                    the     night   be- fore

G|------- ------- ------- -------|------- ------- ------- -------|
D|-------------------------------|-------------------------------|
A|2------------------------------|----------------5--------------|
E|----------------2--------------|3-----------3------------------|
  Now     to- day         I       find
  aaaaaaaaaaaaaaaaaaaaaaaaaaaaaaaaaaaaaaaaaaaaaaaaaaaaaaaaaaaaaaa

G|------- ------- ------- -------|------- ------- ------- -------|
D|-------------------------------|-------------------------------|
A|2-----------2------------------|----------------5--------------|
E|----------------2--------------|3-----------3------------------|
  you have    changed     your mind
  aaaaaaaaaaaaaaaaaaaaaaaaaaaaaaaaaaaaaaaaaaaaaaaaaaaaaaaaaaaaaaa

G|------- ------- ------- -------|------- ------- ------- -------|
D|-------------------------------|-------------------------------|
A|5------------------------------|----------------5--------------|
E|----------------5--------------|3-----------3------------------|
  Treat   me  like        you did         the night       be- fore


G|------- ------- ------- -------|------- ------- ------- -------|
D|-------------------------------|3-----------3-----------5------|
A|5-----------5------------------|-------------------------------|
E|----------------5--------------|-------------------------------|


Verse:
G|------- ------- ------- -------|------- ------- ------- -------|
D|-------------------------------|-------------------------------|
A|5------------------------------|3------------------------------|
E|----------------5--------------|----------------3--------------|
  Were    you     telling         lies?


G|------- ------- ------- -------|------- ------- ------- -------|
D|-------------------------------|-------------------------------|
A|----------------5--------------|----------------7--------------|
E|3-----------3------------------|5-----------5------------------|

  aah,                    the     night   be- fore

G|------- ------- ------- -------|------- ------- ------- -------|
D|-------------------------------|-------------------------------|
A|5------------------------------|3------------------------------|
E|----------------5--------------|----------------3--------------|
  Was I           so  un    -     wise?


G|------- ------- ------- -------|------- ------- ------- -------|
D|-------------------------------|-------------------------------|
A|----------------5--------------|----------------7--------------|
E|3-----------3------------------|5-----------5------------------|

  aah,                    the     night   be- fore

G|------- ------- ------- -------|------- ------- ------- -------|
D|-------------------------------|-------------------------------|
A|2------------------------------|----------------5--------------|
E|----------------2--------------|3-----------3------------------|
  When I      held        you near,
  aaaaaaaaaaaaaaaaaaaaaaaaaaaaaaaaaaaaaaaaaaaaaaaaaaaaaaaaaaaaaaa

G|------- ------- ------- -------|------- ------- ------- -------|
D|-------------------------------|-------------------------------|
A|2------------------------------|----------------5--------------|
E|----------------2--------------|3-----------3------------------|
  you were    so          sin  -  cere
  aaaaaaaaaaaaaaaaaaaaaaaaaaaaaaaaaaaaaaaaaaaaaaaaaaaaaaaaaaaaaaa

G|------- ------- ------- -------|------- ------- ------- -------|
D|-------------------------------|-------------------------------|
A|5------------------------------|----------------5--------------|
E|----------------5--------------|3-----------3------------------|
  Treat   me  like        you did         the night       be- fore


G|------- ------- ------- -------|------- ------- ------- -------|
D|-------------------------------|-------------------------------|
A|5------------------------------|5------------------------------|
E|----------------5--------------|----------------5--------------|


Bridge:
G|------- ------- ------- -------|------- ------- ------- -------|
D|7------------------------------|----------------7--------------|
A|----------------7--------------|5------------------------------|
E|-------------------------------|-------------------------------|
  Last    night   is  the     night       I       will    re-


G|------- ------- ------- -------|------- ------- ------- -------|
D|5-----------5------------------|5-----------5------------------|
A|----------------5--------------|----------------5--------------|
E|-------------------------------|-------------------------------|
  mem  -  ber             you by


G|------- ------- ------- -------|------- ------- ------- -------|
D|-------------------------------|-------------------------------|
A|2------------------------------|7------------------------------|
E|----------------2--------------|----------------7--------------|
  When I      think           of  things  we  did,            it


G|------- ------- ------- -------|------- ------- ------- -------|
D|7-------7-------7-------7------|7-------7-------7-------7------|
A|-------------------------------|-------------------------------|
E|-------------------------------|-------------------------------|
  makes   me      wanna       cry!

Verse:
G|------- ------- ------- -------|------- ------- ------- -------|
D|-------------------------------|-------------------------------|
A|5------------------------------|3-----------3------------------|
E|----------------5--------------|----------------3--------------|
  We      said our        good -  byes,


G|------- ------- ------- -------|------- ------- ------- -------|
D|-------------------------------|-------------------------------|
A|----------------5--------------|----------------7--------------|
E|3-----------3------------------|5-----------5------------------|

  aah,                    the     night   be- fore

G|------- ------- ------- -------|------- ------- ------- -------|
D|-------------------------------|-------------------------------|
A|5------------------------------|3-----------3------------------|
E|----------------5--------------|----------------3--------------|
  Love    was in          your    eyes


G|------- ------- ------- -------|------- ------- ------- -------|
D|-------------------------------|-------------------------------|
A|----------------5--------------|----------------7--------------|
E|3-----------3------------------|5-----------5------------------|

  aah,                    the     night   be- fore

G|------- ------- ------- -------|------- ------- ------- -------|
D|-------------------------------|-------------------------------|
A|2------------------------------|----------------5--------------|
E|----------------2--------------|3-----------3------------------|
  Now     to- day         I       find
  aaaaaaaaaaaaaaaaaaaaaaaaaaaaaaaaaaaaaaaaaaaaaaaaaaaaaaaaaaaaaaa

G|------- ------- ------- -------|------- ------- ------- -------|
D|-------------------------------|-------------------------------|
A|2------------------------------|----------------5--------------|
E|----------------2--------------|3-----------3------------------|
  you have    changed     your mind
  aaaaaaaaaaaaaaaaaaaaaaaaaaaaaaaaaaaaaaaaaaaaaaaaaaaaaaaaaaaaaaa

G|------- ------- ------- -------|------- ------- ------- -------|
D|-------------------------------|-------------------------------|
A|5------------------------------|----------------5--------------|
E|----------------5--------------|3-----------3-----------3------|
  Treat   me  like        you did         the night       be- fore


G|------- ------- ------- -------|------- ------- ------- -------|
D|-------------------------------|3-----------3-----------5------|
A|5------------------------------|-------------------------------|
E|----------------5--------------|-------------------------------|


Verse (half-solo):
G|------- ------- ------- -------|------- ------- ------- -------|
D|-------------------------------|-------------------------------|
A|5------------------------------|3------------------------------|
E|----------------5--------------|----------------3--------------|



G|------- ------- ------- -------|------- ------- ------- -------|
D|-------------------------------|-------------------------------|
A|----------------5--------------|----------------7--------------|
E|3-----------3------------------|5-----------5------------------|



G|------- ------- ------- -------|------- ------- ------- -------|
D|-------------------------------|-------------------------------|
A|5-----------5------------------|3------------------------------|
E|----------------5--------------|----------------3--------------|



G|------- ------- ------- -------|------- ------- ------- -------|
D|-------------------------------|-------------------------------|
A|----------------5--------------|----------------7--------------|
E|3-----------3------------------|5-----------5------------------|



G|------- ------- ------- -------|------- ------- ------- -------|
D|-------------------------------|-------------------------------|
A|2------------------------------|-------------------------------|
E|----------------2--------------|3-----------3---3--------------|
  When I      held        you near,
  aaaaaaaaaaaaaaaaaaaaaaaaaaaaaaaaaaaaaaaaaaaaaaaaaaaaaaaaaaaaaaa

G|------- ------- ------- -------|------- ------- ------- -------|
D|-------------------------------|-------------------------------|
A|2-----------2---2--------------|-------------------------------|
E|-------------------------------|3-----------3---3--------------|
  you were    so          sin  -  cere
  aaaaaaaaaaaaaaaaaaaaaaaaaaaaaaaaaaaaaaaaaaaaaaaaaaaaaaaaaaaaaaa

G|------- ------- ------- -------|------- ------- ------- -------|
D|-------------------------------|-------------------------------|
A|5-----------5------------------|-------------------------------|
E|----------------5--------------|3-----------3---3--------------|
  Treat   me  like        you did         the night       be- fore


G|------- ------- ------- -------|------- ------- ------- -------|
D|-------------------------------|-------------------------------|
A|5-----------5------------------|5-----------5------------------|
E|----------------5--------------|----------------5--------------|


Bridge:
G|------- ------- ------- -------|------- ------- ------- -------|
D|7-----------7---7--------------|-------------------------------|
A|-------------------------------|5-----------5---5--------------|
E|-------------------------------|-------------------------------|
  Last    night   is  the     night       I       will    re-


G|------- ------- ------- -------|------- ------- ------- -------|
D|5-----------5------------------|5-----------5------------------|
A|----------------5--------------|----------------5-------0------|
E|-------------------------------|-------------------------------|
  mem  -  ber             you by


G|------- ------- ------- -------|------- ------- ------- -------|
D|-------------------------------|-------------------------------|
A|2-----------2------------------|7-----------7------------------|
E|----------------2--------------|----------------7--------------|
  When I      think           of  things  we  did,            it


G|------- ------- ------- -------|------- ------- ------- -------|
D|7-------7-------7-------7------|7---7---7---7---7---7---7---7--|
A|-------------------------------|-------------------------------|
E|-------------------------------|-------------------------------|
  makes   me      wanna       cry!

Verse:
G|------- ------- ------- -------|------- ------- ------- -------|
D|-------------------------------|-------------------------------|
A|5------------------------------|3-----------3------------------|
E|----------------5--------------|----------------3--------------|
  Were    you     telling         lies?


G|------- ------- ------- -------|------- ------- ------- -------|
D|-------------------------------|-------------------------------|
A|----------------5--------------|----------------7--------------|
E|3-----------3------------------|5-----------5------------------|

  aah,                    the     night   be- fore

G|------- ------- ------- -------|------- ------- ------- -------|
D|-------------------------------|-------------------------------|
A|5-----------5------------------|3------------------------------|
E|----------------5--------------|----------------3--------------|
  Was I           so  un    -     wise?


G|------- ------- ------- -------|------- ------- ------- -------|
D|-------------------------------|-------------------------------|
A|----------------5--------------|----------------7--------------|
E|3-----------3------------------|5-----------5------------------|

  aah,                    the     night   be- fore

G|------- ------- ------- -------|------- ------- ------- -------|
D|-------------------------------|-------------------------------|
A|2------------------------------|----------------5--------------|
E|----------------2--------------|3-----------3------------------|
  When I      held        you near,
  aaaaaaaaaaaaaaaaaaaaaaaaaaaaaaaaaaaaaaaaaaaaaaaaaaaaaaaaaaaaaaa

G|------- ------- ------- -------|------- ------- ------- -------|
D|-------------------------------|-------------------------------|
A|2------------------------------|----------------5--------------|
E|----------------2--------------|3-----------3------------------|
  you were    so          sin  -  cere
  aaaaaaaaaaaaaaaaaaaaaaaaaaaaaaaaaaaaaaaaaaaaaaaaaaaaaaaaaaaaaaa

G|------- ------- ------- -------|------- ------- ------- -------|
D|-------------------------------|-------------------------------|
A|5------------------------------|----------------5--------------|
E|----------------5--------------|3------------------------------|
  Treat   me  like        you did         the night       be- fore


G|------- ------- ------- -------|------- ------- ------- -------|
D|-------------------------------|3-----------3-----------3------|
A|5------------------------------|-------------------------------|
E|----------------5--------------|-------------------------------|
                                          like the night be - fore

Outro:
G|------- ------- ------- -------|------- ------- ------- -------|
D|-------------------------------|-------------------------------|
A|5-----------5------------------|5------------------------------|
E|----------------5-------5------|-------------------------------|


Please e-mail me for any corrections, or write a comment.

Cмотрите также: аккорды к песне The Word