Добавьте AllTabs в закладки Ctrl+D

Mean Mr Mustard  бассовая партия

  Исполнитель: Beatles Прислал:
Mean Mr Mustard

Beatles


Mean Mr. Mustard
Lennon/McCartney

Tabbed By Mike McMillan
E Major

  Mean mister mustard, sleeps in the park......
g----------------------------|------------|--------|
d-2-2------------------------|----%-------|---%----|
a-------------2-2------------|----%-------|---%----|
e----------------------------|------------|--------|
                         Sleeps in a hole....

g-----------------------|-----------------|
d-2-2------2--1------4--|--------4--4-----|
a--------2-------4-4----|2--2-------------|
e-----------------------|-----------------|
                       saving up to .....
                    
g---------------------|------------------|
d-------R-4-----------|-------7-7--------|
a-2-2--------2-3-4-5__|(5)---------------|
e---------------------|------------------|
                    Keeps a ten bob note...

g------------------|------------------|
d------------------|--------4-4-------|
a--5-5----5-4-3-2__|(2)---------------|
e------------------|------------------|
              Such  a mean old man__
                      (E7)        (C7) B7
g--------------------|---------------|----------------|
d------R-4------1----|-2-2-----------|-2-2----------1-|
a-2-2------2-4-----2-|----------3-3--|------R-4-R-4---|
e--------------------|---------------|----------------|

 mean old man___  
g---------------|-----------------|
d-2-2-----------|--------------1--|
a------R--3-3---|-2-2-R-0-2-4-----|
e---------------|-----------------|


That is the bassline. It repeats for the second verse.

 




Cмотрите также: аккорды к песне Michelle