Добавьте AllTabs в закладки Ctrl+D

Baby You Can Drive My Car  бассовая партия

  Исполнитель: Beatles Прислал:
Baby You Can Drive My Car

Beatles


intro

---------------------------|
------1--3-----------------|
---3-----------------------|
-------------1-------------|

verse

-------2-5-2---------------------|
---3-3--------3--------0-3-0-----|
------------------1-1--------1---|
---------------------------------|   x3

pre-chorus

----------------|
----------------|
----------------|
-3-3-3-3-3-3-3--|

chorus

---------------------------------|
-----3-3-3-----------------------|
--------------1-1-1--------------|
---------------------------------|  x2

---------------------------------------0-----|
--3-3-3----------------3-3-----------1---1---|
--------------1-1-3-3------1-1-1-3-3-------3-|
----------1-3--------------------------------|

intro
verse
pre-chorus
chorus
verse
pre-chorus
chorus

Cмотрите также: аккорды к песне Baby Youre A Rich Man